Lonely day (full)

System Of A Down

INTRO: 
eb|----------------------------------------------------------------| 
Bb|------1-----------0------------1------------0-------------------| 
Gb|----2---2-------2---2--------0---0--------1---1-----------------| 
Ab|--2-------0---2-------2----2-------2----0-------0---------------| 
Db|0------------------------3--------------------------------------| 
Eb|------------3-------------------------2-------------------------| 
 
1st Chorus: 
eb|-----------------------------------------------------------------| 
Bb|-----------------------------------------------------------------| 
Gb|-2--2-2-2--------------5--5-5-5----------------------------------| 
Ab|-2--2-2-2---3--3-3-3---5--5-5-5---2--2-2-2-----------------------| 
Db|-0--0-0-0---3--3-3-3---3--3-3-3---2--2-2-2-----------------------| 
Eb|------------1--1-1-1--------------0--0-0-0-----------------------| 
 
RIFF 1: 
eb|----------------------------------------------------------------| 
Bb|------1-----------0------------1------------0-------------------| 
Gb|----2---2-------2---2--------0---0--------1---1-----------------| 
Ab|--2-------0---2-------2----2-------2----0-------0---------------| 
Db|0------------------------3--------------------------------------| 
Eb|------------3-------------------------2-------------------------| 
 
eb|--------------------------------------------| 
Bb|-14---14------------14-14-13----------------| 
Gb|---15----15-15/17---------------------------| 
Ab|--------------------------------------------| 
Db|--------------------------------------------| 
Eb|--------------------------------------------| 
 
BRIDGE: 
eb|---------------------------------------------------| 
Bb|---------------------------------------------------| 
Gb|---------------------------------------------------| 
Ab|-3--3-3-3---2--2-2-2---5--5-5-5---7--7-7-7---------|x2 
Db|-3--3-3-3---2--2-2-2---5--5-5-5---7--7-7-7---------| 
Eb|-1--1-1-1---0--0-0-0---3--3-3-3---5--5-5-5---------| 
And if you go, I wanna go with you 
And if you die, I wanna die with you. 
 
PRE-SOLO: 
eb|---------------------------------------------------| 
Bb|---------------------------------------------------| 
Gb|---------------------------------------------------| 
Ab|-333333333333-222222222222-------------------------|x2 
Db|-333333333333-222222222222-------------------------| 
Eb|-111111111111-000000000000-------------------------| 
PM  ............ ............ 
 
SOLO: 
eb|---12---12-10-8--7--8--7----8--7---10-7-----------------| 
Bb|---------------------------------9----------------------| 
Gb|--------------------------------------------------------| 
Ab|--------------------------------------------------------| 
Db|--------------------------------------------------------| 
Eb|--------------------------------------------------------| 
 
eb|----------------------------------------------------------------| 
Bb|--13\12/13-12---13\12/13-13---13\12/13-15---13\12/13-17---------| 
Gb|--14\13/14------14\13/14------14\13/14------14\13/14------------| 
Ab|----------------------------------------------------------------| 
Db|----------------------------------------------------------------| 
Eb|----------------------------------------------------------------| 
 
eb|-16t-x?----------------------------------------------------------------| 
Bb|--------19-19-21-17-17-19-16-16-17-14-14-16-12-12-14-10-10-12----------| 
Gb|-----------------------------------------------------------------------| 
Ab|-----------------------------------------------------------------------| 
Db|-----------------------------------------------------------------------| 
Eb|-----------------------------------------------------------------------| 
 
eb|17-17-17-17-17-17-17-17-17-17-17---15-15-17----------------------------| 
Bb|--------------------------------------------18-18-20-17-17-18-15-15-17-| 
Gb|-----------------------------------------------------------------------| 
Ab|-----------------------------------------------------------------------| 
Db|-----------------------------------------------------------------------| 
Eb|-----------------------------------------------------------------------| 
 
eb|-----------------------------------------------------------------------| 
Bb|13-13-15-12-12-13-9--9-10-10-12-12-14-10-10-12-14-12-12-12-14-12-10----| 
Gb|-----------------------------------------------------------------------| 
Ab|-----------------------------------------------------------------------| 
Db|-----------------------------------------------------------------------| 
Eb|-----------------------------------------------------------------------| 
 
eb|-----------------------------------------------------------------------| 
Bb|9--9--9-10-12-14-14-12-12-10--9--9-10-12-14-14-12-12-10-10-10-12-12-13-| 
Gb|-----------------------------------------------------------------------| 
Ab|-----------------------------------------------------------------------| 
Db|-----------------------------------------------------------------------| 
Eb|-----------------------------------------------------------------------| 
 
eb|-----------------------------------------------------------------------| 
Bb|13-12-12-15-15-13-12-13-13-15-13-12-10-10-10-12-13-15-13-12-10-10-10-12| 
Gb|-----------------------------------------------------------------------| 
Ab|-----------------------------------------------------------------------| 
Db|-----------------------------------------------------------------------| 
Eb|-----------------------------------------------------------------------| 
 
eb|-----------------------------------------------------------------------| 
Bb|13-15-15-13-12-10-9--9-10-12-14-14-12-12-10-9--9-10-12-14-14-12-12-10-9| 
Gb|-----------------------------------------------------------------------| 
Ab|-----------------------------------------------------------------------| 
Db|-----------------------------------------------------------------------| 
Eb|-----------------------------------------------------------------------| 
 
eb|-----------------------------------------------------------------------| 
Bb|9-10-12-14-14-12-12-10--9--9-10-12-14-14-12-12-10-10-10-12-13-15-15-13-| 
Gb|-----------------------------------------------------------------------| 
Ab|-----------------------------------------------------------------------| 
Db|-----------------------------------------------------------------------| 
Eb|-----------------------------------------------------------------------| 
 
eb|-----------------------------------------------------------------------| 
Bb|12-10-10-10-12-13-15-15-13-12-10-10-10-12-13-15-15-13-12-10-10-10-12-13| 
Gb|-----------------------------------------------------------------------| 
Ab|-----------------------------------------------------------------------| 
Db|-----------------------------------------------------------------------| 
Eb|-----------------------------------------------------------------------| 
 
eb|-----------------------------------------------------------------------| 
Bb|15-15-13-12-10---------------------------------------------------------| 
Gb|-------------------END OF SOLO-----------------------------------------| 
Ab|-----------------------------------------------------------------------| 
Db|-----------------------------------------------------------------------| 
Eb|-----------------------------------------------------------------------| 
 
 
Chorus(some parts I couldn't find): 
eb|-----------------------------------------------------------------| 
Bb|-----------------------------------------------------------------| 
Gb|-2--2-2-2--------------5--5-5-5----------------------------------| 
Ab|-2--2-2-2---3--3-3-3---5--5-5-5---2--2-2-2-----------------------| 
Db|-0--0-0-0---3--3-3-3---3--3-3-3---2--2-2-2-----------------------| 
Eb|------------1--1-1-1--------------0--0-0-0-----------------------| 
 
 
OUTRO(last part of the second time more slowiest): 
eb|----------------------------------------------------------------| 
Bb|------1-----------0------------1------------0-------------------| 
Gb|----2---2-------2---2--------0---0--------1---1-----------------| 
Ab|--2-------0---2-------2----2-------2----0-------0---------------|x2 
Db|0------------------------3--------------------------------------| 
Eb|------------3-------------------------2-------------------------| 
 
END WITH THIS: 
eb|-----------------------------------------| 
Bb|-------------10--------------------------| 
Gb|---10--9---------------------------------| 
Ab|-----------------------------------------| 
Db|-----7---7-------------------------------| 
Eb|-----------------------------------------| 
 
Legend: 
.... : palm mute 
t: tremolo picking 
 
 
This song I work in it about 1 month and a half. 
Comments to the next mail: 
[email protected] 

Compartilhe esta música: novo

QR Code
Copiar