Kill The Assholes

System Of A Down

/ : slide from/to
pm : palm mute

(Verse)
D|------------------------------------
A|------------------------------------
F|----101010-101010-6-6-6--8-8-8------
G|----101010-101010-6-6-6--8-8-8------
G|----8-8-8--8-8-8--4-4-4--6-6-6------
C|------------------------------------

(Chorus)
D|---------------------------------------------
A|---------------------------------------------
F|----5--3/10--5--3/10--5--3/10-10107-7--------
G|----5--3/10--5--3/10--5--3/10-10107-7--------
G|----3--1/8---3--1/8---3--1/8--8-8-5-5--------
C|---------------------------------------------
pm    .        .        .

Compartilhe esta música: novo

QR Code
Copiar