Kill Rock'n Roll (Solo )

System Of A Down

--------------------------------------------------|  
--------------------------------------------------|  
--------------------------------------------------|  
--10-10-10-10-10-10-10-10-10-10-10-10-10-10-10-10-|  
-8--8--8--8--8--8--8--8---------------------------|  
-------------------------7--7--7--7--7--7--7--7---|  
  
----------------------------------|  
----------------------------------|  
----------------------------------|  
--9-9-9-9-9-9-9-9-9-9-9-9-9-9-9-9-| x 2  
-7-7-7-7-7-7-7-7-8-8-8-8-8-8-8-8--|  
----------------------------------|  

Compartilhe esta música: novo

QR Code
Copiar