Kill Rock'n Roll

System Of A Down

Tom: D
Song: Kill Rock n Roll 
Artist: System of a Down 
tabber: SpkGrk ([email protected]) 
 
Tuning Drop D half step down (Db Ab Db Gb Bb Eb) 
 
/-slide 
PM-palm mute 
x-scrape 
 
Intro (clean): 
 
Guitar 1 
-|-------------------------------------------------------------------------------- 
-|-------------------------------------------------------------------------------- 
-|-------------------------------------------------------------------------------- 
-|---10---10---10---10---10---10---10---10---10---10---10---10---10---10---10---10 
-|-8----8----8----8----8----8----8----8----0----0----0----0----0----0----0----0--- 
-|-------------------------------------------------------------------------------- 
 
-|---------------------------------------------------------------- 
-|---------------------------------------------------------------- 
-|---------------------------------------------------------------- 
-|---9---9---9---9---9---9---9---9---9---9---9---9---9---9---9---9 
-|-7---7---7---7---7---7---7---7---8---8---8---8---8---8---8---8-- 
-|----------------------------------------------------------------  
 
Guitar 1 repeats intro, during the repeat Guitar 2 plays: 
 
-|-8--8--8--8--8--8--8--8--8--8--8--8--8--8--8--8--12-12-12-12-12-12-12-12-12-12-12-12-12-12-12/13 
-|-10-10-10-10-10-10-10-10-10-10-10-10-10-10-10-10-10-10-10-10-10-10-10-10-10-10-10-10-10-10-10/12 
-|------------------------------------------------------------------------------------------------ 
-|------------------------------------------------------------------------------------------------ 
-|------------------------------------------------------------------------------------------------ 
-|------------------------------------------------------------------------------------------------ 
 
-|-15-15-15-15-10-10-10-10-7-7-7-7-10-10-10-10-5-5-5-5-5-5-5-5-5-5-5-5-5-5-5-5 
-|-17-17-17-17-12-12-12-12-9-9-9-9-12-12-12-12-6-6-6-6-6-6-6-6-6-6-6-6-6-6-6-6 
-|---------------------------------------------------------------------------- 
-|---------------------------------------------------------------------------- 
-|---------------------------------------------------------------------------- 
-|---------------------------------------------------------------------------- 
 
 
Verse (Distorted): 
 
-|--------------------------------------------------- 
-|--------------------------------------------------- 
-|------5---------4---------------------------------- 
-|-3-xx-5-xx-2-xx-4-xx-7--7-7-7-7-7-7-7-7-7-7-7-7-7-7 
-|-3-xx-3-xx-2-xx-2-xx-7--7-7-7-7-7-7-7-7-7-7-7-7-7-7 
-|-3-xx---xx-2-xx---xx-7--7-7-7-7-7-7-7-7-7-7-7-7-7-7 
PM                        . . . . . . . . . . . . . .  
 
The last time the verse is played before the Chorus, the palm mute is gradually released on the last chord. 
 
 
Chorus (Distorted): 
 
-|-------------------------------------------------------------------------------- 
-|-------------------------------------------------------------------------------- 
-|-10-10-10-10-10-10-10-10-10-10-10-10-10-10-10-10-------------------------------- 
-|-10-10-10-10-10-10-10-10-10-10-10-10-10-10-10-10-7-7-7-7-7-7-7-7-7-7-7-7-7-7-7-7 
-|-8--8--8--8--8--8--8--8--8--8--8--8--8--8--8--8--7-7-7-7-7-7-7-7-7-7-7-7-7-7-7-7 
-|-------------------------------------------------7-7-7-7-7-7-7-7-7-7-7-7-7-7-7-7 
 
-|-------------------------------------------------------------------------------- 
-|-------------------------------------------------------------------------------- 
-|-9-9-9-9-9-9-9-9-9-9-9-9-9-9-9-9-10-10-10-10-10-10-10-10-10-10-10-10-10-10-10-10 
-|-9-9-9-9-9-9-9-9-9-9-9-9-9-9-9-9-10-10-10-10-10-10-10-10-10-10-10-10-10-10-10-10 
-|-7-7-7-7-7-7-7-7-7-7-7-7-7-7-7-7-8--8--8--8--8--8--8--8--8--8--8--8--8--8--8--8- 
-|-------------------------------------------------------------------------------- 
 
 
Bridge (Distorted): 
 
-|------------------------------------------ 
-|------------------------------------------ 
-|------------------------------------------ 
-|-3---/8--7---/2----3--3---/8--7---/2--2-3- 
-|-3---/8--7---/2----3--3---/8--7---/2--2-3- 
-|-3---/8--7---/2----3--3---/8--7---/2--2-3- 
 
 
Interlude: 
 
-|------------------------------------------------------------------ 
-|------------------------------------------------------------------ 
-|------------------------------------------------------------------ 
-|-----9---10-9-7-------9---10-9-7-------7---8-7-5-------7---8-7-5-- 
-|---8---8--------8---8---8--------8---6---6-------6---6---6-------6 
-|-7----------------7----------------5---------------5-------------- x2 clean palm muted, then x2 distorted palm muted,  
end with: 
 
-|-- 
-|-- 
-|-- 
-|-5 
-|-5 
-|-5 
 
 
Bridge 2nd time (Distorted): 
 
-|------------------------------------------------ 
-|------------------------------------------------ 
-|------------------------------------------------ 
-|-3--3--3--10--7--7--7--7--2--2--2--2--3--3--3--3 
-|-3--3--3--10--7--7--7--7--2--2--2--2--3--3--3--3 
-|-3--3--3--10--7--7--7--7--2--2--2--2--3--3--3--3 
 
-|---------------------------------------------------------------------------------------------------- 
-|---------------------------------------------------------------------------------------------------- 
-|---------------------------------------------------------------------------------------------------- 
-|-3-3-3-3-3-3-3-3-3-3-3-3-10-10-10-10-7-7-7-7-7-7-7-7-7-7-7-7-7-7-7-7-2-2-2-2-2-2-2-2-3-3-3-3-3-3-3-3 
-|-3-3-3-3-3-3-3-3-3-3-3-3-10-10-10-10-7-7-7-7-7-7-7-7-7-7-7-7-7-7-7-7-2-2-2-2-2-2-2-2-3-3-3-3-3-3-3-3 
-|-3-3-3-3-3-3-3-3-3-3-3-3-10-10-10-10-7-7-7-7-7-7-7-7-7-7-7-7-7-7-7-7-2-2-2-2-2-2-2-2-3-3-3-3-3-3-3-3 
PM . . . . . . . . . . . . .  .  .  .  . . . . . . . . . . . . . . . . . . . . . . . . . . . . . . . .  
                                             (gradually release palm mute towards end) 
 
 
Outro Chorus (Distorted): 
 
-|----------------------------------------- 
-|----------------------------------------- 
-|------5---------4---------5---------4---- 
-|-3-xx-5-xx-2-xx-4-xx-3-xx-5-xx-2-xx-4-xx- 
-|-3-xx-3-xx-2-xx-2-xx-3-xx-3-xx-2-xx-2-xx- 
-|-3-xx---xx-2-xx---xx-3-xx---xx-2-xx---xx- 
 
-|---------------------------------------------------------------- 
-|---------------------------------------------------------------- 
-|---------------------------------------------------------------- 
-|---------------------------------------------------------------- 
-|-----------------3-3-3-3-3-3-3-3-----------------2-2-2-2-2-2-2-2 
-|-3-3-3-3-3-3-3-3-----------------2-2-2-2-2-2-2-2---------------- x2 
 
-|--- 
-|--- 
-|--- 
-|-7- 
-|-7- 
-|-7- 
 
 
thats it. email me with any comments, corrections - [email protected] 
 
 

Compartilhe esta música: novo

QR Code
Copiar