Kill Rock N Roll Live

System Of A Down

Tuning: Standard System tuning (high to low- DAFCGC) 
 
This is an awesome song from System's new album and can be downloaded from soadonefnet.com 
 
Before the song, Daron says: 
 
'When I was a little boy 
I used to talk to God.  
And I said you motherfucker 
And he said you motherfucker 
Gotta grow up 
And kill rock and roll 
He said kill rock and roll 
And fuck all the sexy people 
So I did' 
 
Intro (play first bit twice): 
 
1|------------------------------|.|------------------------------|.| 
2|------------------------------|.|------------------------------|.| 
3|------------------------------|.|------------------------------|.| 
4|-----11-----11-----11-----11--|.|-----10-----10-----10-----10--|.| 
5|--9------9------9------9------|.|--8------8------8------8------|.| 
6|------------------------------|.|------------------------------|.| 
 
   Very fast 
1|-----------------------------------------------------------------| 
2|-----------------------------------------------------------------| 
3|-----------------------------------------------------------------| 
4|-11--11--11--11--11--11--11--11--11--11--11--11--11--11--11--11--| 
5|--9---9---9---9---9---9---9---9---9---9---9---9---9---9---9---9--| 
6|-----------------------------------------------------------------| 
   Oh____________________________________________________________ 
 
1|-----------------------------------------------------------------| 
2|-----------------------------------------------------------------| 
3|-----------------------------------------------------------------| 
4|-10--10--10--10--10--10--10--10--10--10--10--10--10--10--10--10--| 
5|--8---8---8---8---8---8---8---8---8---8---8---8---8---8---8---8--| 
6|-----------------------------------------------------------------| 
    Oh____________________________________________________________ 
 
Chorus: 
 
      Riff A 
1|-------------------------------------| 
2|-------------------------------------| 
3|-------------------------------------| 
4|----9----9----9---9--9----9-----8----| 
5|----9----9----9---9--9----9-----8----| 
6|----9----9----9---9--9----9-----8----| 
    I felt like the biggest ass - hole... 
 
    Riff B  
1|---------------------------| 
2|---------------------------| 
3|---------------------------| 
4|--8--8--8---8--8----8--8---| 
5|--8--8--8---8--8----8--8---| 
6|--8--8--8---8--8----8--8---| 
    Am I  the biggest asshole? 
 
w/riff A- Killed your rock and roll! 
w/riff B- Fuck all the sexy people 
 
Post chorus (play chords however many times): 
 
1|--------------------------------------| 
2|--------------------------------------| 
3|--------------------------------------| 
4|--9--9--9--9--9--9--9--9--9--9--9--9--| 
5|--9--9--9--9--9--9--9--9--9--9--9--9--| 
6|--9--9--9--9--9--9--9--9--9--9--9--9--| 
    Every time I looked in your eyes... 
 
1|--------------------------------------| 
2|--------------------------------------| 
3|--------------------------------------| 
4|--8--8--8--8--8--8--8--8--8--8--8--8--| 
5|--8--8--8--8--8--8--8--8--8--8--8--8--| 
6|--8--8--8--8--8--8--8--8--8--8--8--8--| 
   ...every day I'm watching you die... 
 
1|--------------------------------------| 
2|--------------------------------------| 
3|--------------------------------------| 
4|--6--6--6--6--6--6--6--6--6--6--6--6--| 
5|--6--6--6--6--6--6--6--6--6--6--6--6--| 
6|--6--6--6--6--6--6--6--6--6--6--6--6--| 
   ...all the faults I see in you... 
 
1|--------------------------------------| 
2|--------------------------------------| 
3|--------------------------------------| 
4|--8--8--8--8--8--8--8--8--8--8--8--8--| 
5|--8--8--8--8--8--8--8--8--8--8--8--8--| 
6|--8--8--8--8--8--8--8--8--8--8--8--8--| 
   ...how, and why? 
 
 
Bridge (again play chords however many times): 
 
1|-------------------------------------------------------------| 
2|-------------------------------------------------------------| 
3|-------------------------------------------------------------| 
4|--9------------8--------------6----------------8-------------| 
5|--9------------8--------------6----------------8-------------| 
6|--9------------8--------------6----------------8-------------| 
    Ah_________  Ah___________  Ah______________ Ah____________ 
 
 
Interlude: ('Eat all the grass that you want, 
             Accidents happen in the dark') 
  
 
1|-----------|-----------|-----------|-----------| 
2|-----------|-----------|-----------|-----------| 
3|-----------|-----------|-----------|-----------| 
4|-----------|-----------|-----------|-----------| 
5|--8--6-----|--8--6-----|--8--6-----|--8--6-----| 
6|--------8--|--------8--|--------8--|--------8--| 
    PM___________________________________________ 
 
1|-----------|-----------|-----------|-----------| 
2|-----------|-----------|-----------|-----------| 
3|-----------|-----------|-----------|-----------| 
4|-----------|-----------|-----------|-----------| 
5|--6--4-----|--6--4-----|--6--4-----|--6--4-----| 
6|--------6--|--------6--|--------6--|--------6--| 
    PM___________________________________________ 
 
For the interlude, keep repeating it and gradually release the Palm muting. 
 
Final chorus: 
 
w/riff A: So I felt like the biggest asshole 
w/riff B: Am I the biggest asshole? 
w/riff A: When I felt like the biggest asshole 
w/riff B: When I killed rock and roll! 
 
Great and easy song. Email me with questions/comments: [email protected]

Compartilhe esta música: novo

QR Code
Copiar