Kil rock n' roll

System Of A Down

. = palm muted 
 
INTRO 
--------------------------------------------------| 
--------------------------------------------------| 
--------------------------------------------------| 
--10-10-10-10-10-10-10-10-10-10-10-10-10-10-10-10-| 
-8--8--8--8--8--8--8--8---------------------------| 
-------------------------7--7--7--7--7--7--7--7---| 
 
----------------------------------| 
----------------------------------| 
----------------------------------| 
--9-9-9-9-9-9-9-9-9-9-9-9-9-9-9-9-| x 2 
-7-7-7-7-7-7-7-7-8-8-8-8-8-8-8-8--| 
----------------------------------| 
 
This is also played the second time (fast picking): 
-13-(x16)-12-(x14)-13-(x2)-15-(x4)----------------------------------| 
-15-------13-------15------17------15-(x4)-12-(x4)-15-(x4)-13-(x16)-| 
-----------------------------------16------13------16------14-------| 
--------------------------------------------------------------------| 
--------------------------------------------------------------------| 
--------------------------------------------------------------------| 
 
Chorus 
-------------------------------------------------| 
-------------------------------------------------| 
-----5-------4-----------------------------------| 
-3---5---2---4---7-7-7-7-7-7-7-7-7-7-7-7-7-7-7-7-| x 2 
-3---3---2---2---7-7-7-7-7-7-7-7-7-7-7-7-7-7-7-7-| 
-3-------2-------7-7-7-7-7-7-7-7-7-7-7-7-7-7-7-7-| 
                 . . . . . . . . . . . . . . . . 
 
VERSE 
-------------------------------------------| 
-------------------------------------------| 
-------------------------------------------| 
-3-3-3-3-3-3-3-3-(x2)-7-7-7-7-7-7-7-7-(x2)-| 
-3-3-3-3-3-3-3-3------7-7-7-7-7-7-7-7------| 
-3-3-3-3-3-3-3-3------7-7-7-7-7-7-7-7------| 
 
-------------------------------------------| 
-------------------------------------------| 
-------------------------------------------| 
-2-2-2-2-2-2-2-2-(x2)-3-3-3-3-3-3-3-3-(x2)-| 
-2-2-2-2-2-2-2-2------3-3-3-3-3-3-3-3------| 
-2-2-2-2-2-2-2-2------3-3-3-3-3-3-3-3------| 
 
 
INTRO TO BRIDGE 
-----------------------------| 
-----------------------------| 
-----------------------------| 
-3-----/8--7-----2-----3-----| x2 
-3-----/8--7-----2-----3-----| 
-3-----/8--7-----2-----3-----| 
 
BRIDGE (All palm muted) 
 
------------------------------------------| 
------------------------------------------| 
--------5--------------------3------------| 
-----7----7--------------5-----5----------| x 8 (First four times clean, 
---7---7----7---(x2)---5---5-----5---(x2)-|      last four distortion) 
-7------------7------5-------------5------| 
 
LAST Chorus 
-------------------------------| 
-------------------------------| 
-----5-------4-------5-------4-| 
-3---5---2---4---3---5---2---4-| 
-3---3---2---2---3---3---2---2-| 
-3-------2-------3-------2-----| 
 
-----------------------------------------------------------------| 
-----------------------------------------------------------------| 
-----------------------------------------------------------------| 
-----------------------------------------------------------------| x2(Very 
-----------------3-3-3-3-3-3-3-3-----------------2-2-2-2-2-2-2-2-|    fast 
-3-3-3-3-3-3-3-3-----------------2-2-2-2-2-2-2-2-----------------| picking) 
 . . . . . . . . . . . . . . . . . . . . . . . . . . . . . . . . 
 
--- 
--- 
--- 
-7- 
-7- 
-7- 
 
ORDER 
 
INTRO 
Chorus 
VERSE 
Chorus 
VERSE 
INTRO TO BRIDGE 
BRIDGE 
VERSE 
INTRO TO BRIDGE (first time normal, second time palm muted and 
                 constant notes) 
LAST Chorus 
Comments to the next mail: 
[email protected] 

Compartilhe esta música: novo

QR Code
Copiar