/- slide up
\- slide down

Intro (0:00)
1|------------------------------------------|
2|-12---------10-9-------12---------10-9----|
3|-10--7-9-10------10-9--10--7-9-10------10-|

Verse (0:09) (0:36)
1|----------14/---------14/--------14/-------|
2|-12-12-13----12-12-13-----9-9-10-----9-9-8-|
3|-10-10-11----10-10-11-----7-7--8-----7-7-6-|

Chorus (0:25) (1:01) (1:47)
4|-0-2-3-2-6-7-9|-0-2-3-2-2-3-0-|
5|-0-2-3-2-6-7-9|-0-2-3-2-2-3-0-|
6|-0-2-3-2-6-7-9|-0-2-3-2-2-3-0-|

Solo (need guitar slide) (1:22)                                 (1:42)
1|-7/8-8-9\8\7-/12\-7/8-8-9\8\7-7\-4/5-5-7\5\4-/7\-4/5-5-7\5\4-/|-7-7/8\7--7/|
2|--------------------------------------------------------------|------------|
3|--------------------------------------------------------------|------------|

Compartilhe esta música: novo

QR Code
Copiar