I-E-A-I-A-I-O

System Of A Down

Tuning: Drop D, Down 1 Step (C,G,C,F,A,D)

INTRO: (play 2X and then play continuous until bridge comes in)
|-t17p13p10-t17p13p10-t17p13p10-t17p13p10-t17p13p10-|
|---------------------------------------------------|
|---------------------------------------------------|
|---------------------------------------------------|
|---------------------------------------------------|
|---------------------------------------------------|

BRIDGE: (guitar 1)
|-------------------------------------------------------|
|-------------------------------------------------------|
|-------------------------------------------------------|
|-0--0--1p0-0--1p0-0--1p0-0--1p0-0--1p0-0--1p0-0--1p0-0-|
|-0--0--1p0-0--1p0-0--1p0-0--1p0-0--1p0-0--1p0-0--1p0-0-|
|-0--0--1p0-0--1p0-0--1p0-0--1p0-0--1p0-0--1p0-0--1p0-0-|

BRIDGE: (guitar 2) (palm mute)
|---------------------------------|
|---------------------------------|
|---------------------------------|
|---------------------------------|
|-1-0-0-0-1-0-0-0-1-0-0-0-0-0-0-0-|
|-1-0-0-0-1-0-0-0-1-0-0-0-0-0-0-0-|

VERSE:
|---------------------------|
|---------------------------|
|---------------------------|
|-0--0--1p0-0--1p0-0--1p0-0-|
|-0--0--1p0-0--1p0-0--1p0-0-|
|-0--0--1p0-0--1p0-0--1p0-0-|

VERSE B:
|----------------------------|
|----------------------------|
|-10-10--10-10--10-10--10-10-|
|----------------------------|
|----------------------------|
|----------------------------|

VERSE C:
|------------------------------------|
|------------------------------------|
|-7p5-7p5--7p5-7p5--7p5-7p5--7p5-7p5-|
|------------------------------------|
|------------------------------------|
|------------------------------------|

CHORUS: (* - play 1st time only)
|---------------------------------------------------|
|---------------------------------------------------|
|---------------------------------------------------|
|---------------------------------------------------|
|-*0-0-0*-0-0-0-3-2-2-2-0-0-0-5-5-5-5-3-2-2-2-0-0-0-|
|-*0-0-0*-0-0-0-3-2-2-2-0-0-0-5-5-5-5-3-2-2-2-0-0-0-|

CHORUS 2:
|-----------------------------------|
|-----------------------------------|
|-----------------------------------|
|-3------------------2--------------|
|-3-0000000000000000-2-000000000000-|
|-3-0000000000000000-2-000000000000-|
pm  ................   ............

INTERLUDE: (^ - bend 1/2 step)
|---------------------------------------------|
|---------------------------------------------|
|----------14--14-15-14-----------------14-12-|
|-12-13-12--------------12--12-13-12-12-------|
|---------------------------------------------|
|---------------------------------------------|
pm.. .. ..     .. .. ..     .. .. .. ..

|---------------------------------------------------------------------|
|---------------------------------------------------------------------|
|----------14--14-15-14-----------------14-15--15^(15 15 15 15 15 15)-|
|-12-13-12--------------12--12-13-12-12-------------------------------|
|---------------------------------------------------------------------|
|---------------------------------------------------------------------|
pm.. .. ..     .. .. ..     .. .. .. ..

INTERLUDE 2: (palm mute)
|-----------------------------------|
|-----------------------------------|
|-----------------------------------|
|-12--13-12--13-12--13-12--10-10-12-|
|-----------------------------------|
|-----------------------------------|

Compartilhe esta música: novo

QR Code
Copiar