Hypnotize (Solo)

System Of A Down

    S S S S S S S S S S S S S S S S   S S S S S S S S S S S S S S S S  
||----------------------------------|----------------------------------||  
||o-1---1---3---3---3---3---3---3---|-4---4---3---3---1---1---0---0---o||  
||----0---0---0---0---0---0---0---0-|---0---0---0---0---0---0---0---0--||  
||----------------------------------|----------------------------------||  
||o---------------------------------|---------------------------------o||  
||----------------------------------|----------------------------------||  
  
  
    S S S S S S S S  S S  S S S S S S    S S  S S  S S  S S  S S  S S  S S  S S  
||------------------------------------|------------------------------------------||  
||o-8---8---7---7---10---10---8---8---|-12---12---10---10---13---13---12---12---o||  
||----0---0---0---0----0----0---0---0-|----0----0----0----0----0----0----0----0--||  
||------------------------------------|------------------------------------------||  
||o-----------------------------------|-----------------------------------------o||  
||------------------------------------|------------------------------------------||  
  
  
   S S  S S  S S  S S  S S  S S  S S  S S    S S  S S  S S  S S  S S  S S S S S S  
|-----------------------------------------|---------------------------------------|  
|-15---15---13---13---12---12---10---10---|-13---13---12---12---10---10---8---8---|  
|----0----0----0----0----0----0----0----0-|----0----0----0----0----0----0---0---0-|  
|-----------------------------------------|---------------------------------------|  
|-----------------------------------------|---------------------------------------|  
|-----------------------------------------|---------------------------------------|  
  
  
   S S  S S  S S  S S S S S S S S S S  
|-------------------------------------|  
|-11---11---10---10---8---8---7---7---|  
|----0----0----0----0---0---0---0---0-|  
|-------------------------------------|  
|-------------------------------------|  
|-------------------------------------|  
 
 
Why don?t you ask the kids at Tiananmen Square?  
Was fashion the reason why they were there?  
They disguise it, hypnotize it  
Television made you buy it  
  
I'm just sitting in my car and waiting for my girl  
  
She?s scared that I will take her away from there  
Dreams that her country left with no one there  
Mesmerize the simple minded  
Propaganda leaves us blinded  
  
I'm just sitting in my car and waiting for my girl  
I'm just sitting in my car and waiting for my girl  
 
 
hehe tah ai minha colaboração... =P 

Compartilhe esta música: novo

QR Code
Copiar