Holy mountains

System Of A Down

Tom: C#m
Holy mountains - System of a down 
 
Afine a 6º corda (E) em D 
 
INTRO 2x 
 
e------------------------------------------------------------------------------------------------------------------------------- 
B------------------------------------------------------------------------------------------------------------------------------ 
G------------------------------------------------------------------------------------------------------------------------------- 
D------0-----------0-------0---------0---------0------------0--------0------0---------------0------0-------0---------------- 
A----0--0--0----0---0---0---0----0---0-----0---0--------0---0---0---0--0---0---0------0---0--0---0---0---0--0----------- 
D--0------0--8-7------7-------12--------12--------8-7-5-------5-------3-------3---8-7-------7-------2-------2---3-2-0--- 
 
INTRO 2X 
 
D----------------------------------------------------- 
A--0-0-8-7-7-12-12-8-7-5-5-3-3-8-7-2-2-3-2-0-0- 
D--0-0-8-7-7-12-12-8-7-5-5-3-3-8-7-2-2-3-2-0-0- 
 
 
    Can    you    feel    their     haunting     presence    2x 
 
D-------------------------------------------------- 
A-0-----2-----3-----5-------7---8-----10--12---- 
D-0-----2-----3-----5-------7---8-----10--12---- 
 
Na segunda vez entra uma guitarra solo junto com base (não tenho certeza se é isso) 
 
e--10---------10---------10---------10--------10--------12--------12--------12--------12--------12--------13---------13--------15--------15---------- 
B-----10--8------10--8-----10--8------10--8----10--8-----10--8-----10--8-----10--8-----10--8----10--8-----13--11---11--11----13--11----13--11-- 
G------------------------------------------------------------------------------------------------------------------------------------------------------------- 
 
 
 
    LIAR, KILLER DEMOM 
 
D--------------------- 
A-8-8---8-8------8-8 
D-8-8---8-8------8-8 
 
    Back to   the river Aras 
 
D-------------------------- 
A-7-----8--7--10---8-7--- 
D-7-----8--7--10---8-7--- 
 
 
    Someone's blank stare deemed it warfare 
 
D------------------------------------------------------------ 
A-0----2-----3----5-----7-------3-5---2------------------- 
D-0----2-----3----5-----7-------3-5---2------------------- 
 
 
    LIAR, KILLER DEMOM 
 
D--------------------- 
A-8-8---8-8------8-8 
D-8-8---8-8------8-8 
 
    Back to   the river Aras 
 
D-------------------------- 
A-7-----8--7--10---8-7--- 
D-7-----8--7--10---8-7--- 
 
    FREEDOM...  	FREEDOM..          FOR FREE...        FREE 
 
D---------------------------------------------------------------------------------- 
A-3-3-3-3-2-0-2-0----3-3-3-3-2-0-2-0--5-5-5-5-3-2-3-0--3-3-3-3-2-0-2-0-- 
D-3-3-3-3-2-0-2-0----3-3-3-3-2-0-2-0--5-5-5-5-3-2-3-0--3-3-3-3-2-0-2-0-- 
 
 
D----------------------------------------------------- 
A--0-0-8-7-7-12-12-8-7-5-5-3-3-8-7-2-2-3-2-0-0- 
D--0-0-8-7-7-12-12-8-7-5-5-3-3-8-7-2-2-3-2-0-0- 
 
 
    Can    you   hear    the        holy          mountains     
 
D-------------------------------------------------- 
A-0-----2-----3-----5-------7---8-----10--12---- 
D-0-----2-----3-----5-------7---8-----10--12---- 
 
e--10---------10---------10---------10--------10--------12--------12--------12--------12--------12--------13---------13--------15--------15---------- 
B-----10--8------10--8-----10--8------10--8----10--8-----10--8-----10--8-----10--8-----10--8----10--8-----13--11---11--11----13--11----13--11-- 
G------------------------------------------------------------------------------------------------------------------------------------------------------------- 
 
 
    LIAR, KILLER DEMOM 
 
D--------------------- 
A-8-8---8-8------8-8 
D-8-8---8-8------8-8 
 
    Back to   the river Aras 
 
D-------------------------- 
A-7-----8--7--10---8-7--- 
D-7-----8--7--10---8-7--- 
 
    Someone's mouth said   paint   them all red 
 
D------------------------------------------------------------ 
A-0----2-----3-----5-----7-------3-5----2------------------- 
D-0----2-----3-----5-----7-------3-5----2------------------- 
 
 
    LIAR, KILLER DEMOM 
 
D--------------------- 
A-8-8---8-8------8-8 
D-8-8---8-8------8-8 
 
    Back to   the river Aras 
 
D-------------------------- 
A-7-----8--7--10---8-7--- 
D-7-----8--7--10---8-7--- 
 
    FREEDOM...  	FREEDOM..          FOR FREE...        FREE 
 
D---------------------------------------------------------------------------------- 
A-3-3-3-3-2-0-2-0----3-3-3-3-2-0-2-0--5-5-5-5-3-2-3-0--3-3-3-3-2-0-2-0-- 
D-3-3-3-3-2-0-2-0----3-3-3-3-2-0-2-0--5-5-5-5-3-2-3-0--3-3-3-3-2-0-2-0-- 
 
 
D---------------------------------------------------------------------------------- 
A---------------------------------------------------------------------------------- 
D-7--8--10--12--7--8--10--12--7-8-10-12-7-8-10-12-7-8-10-12-7-8-10-12-- 
 
D------------------------------------------------------------------------------------------- 
A-7/-8/-10/-12/-7/-8/-10/-12/-7/-8/-10/-12/-7/-8/-10/-12/-7/-8/-10/-12/-7/-8/-10/-12/--- 
D-7/-8/-10/-12/-7/-8/-10/-12/-7/-8/-10/-12/-7/-8/-10/-12/-7/-8/-10/-12/-7/-8/-10/-12/--- 
 
 
D----------------------------------------------------- 
A--0-0-8-7-7-12-12-8-7-5-5-3-3-8-7-2-2-3-2-0-0- 
D--0-0-8-7-7-12-12-8-7-5-5-3-3-8-7-2-2-3-2-0-0- 
 
    
      They have all returned resting on the mountain side we have learned that you have no  
D----------------------------------------------------- 
A--0-0--------8-7-7-----12-12-----------8-7-5-5---3-3-8-7---------2--2--3-2--0-0- 
D--0-0--------8-7-7-----12-12-----------8-7-5-5---3-3-8-7---------2--2--3-2--0-0- 
 
  They have all returned resting on the mountain side we have learned that you have no  
D----------------------------------------------------- 
A--0-0--------8-7-7-----12-12-----------8-7-5-5---3-3-8-7---------2--2--3-2--0-0- 
D--0-0--------8-7-7-----12-12-----------8-7-5-5---3-3-8-7---------2--2--3-2--0-0- 
 
    HONOR, MURDERER, SODOMIZER 
 
D--------------------- 
A-8-8---8-8------8-8 
D-8-8---8-8------8-8 
 
    Back to   the river Aras 
 
D-------------------------- 
A-7-----8--7--10---8-7--- 
D-7-----8--7--10---8-7--- 
 
 
  They have all returned resting on the mountain side we have learned that you have no  
D----------------------------------------------------- 
A--0-0--------8-7-7-----12-12-----------8-7-5-5---3-3-8-7---------2--2--3-2--0-0- 
D--0-0--------8-7-7-----12-12-----------8-7-5-5---3-3-8-7---------2--2--3-2--0-0- 
 
    HONOR, MURDERER, SODOMIZER 
 
D--------------------- 
A-8-8---8-8------8-8 
D-8-8---8-8------8-8 
 
    Back to   the river Aras 
 
D-------------------------- 
A-7-----8--7--10---8-7--- 
D-7-----8--7--10---8-7--- 
 
    FREEDOM...  	FREEDOM..          FOR FREE...        FREE 
 
D---------------------------------------------------------------------------------- 
A-3-3-3-3-2-0-2-0----3-3-3-3-2-0-2-0--5-5-5-5-3-2-3-0--3-3-3-3-2-0-2-0-- 
D-3-3-3-3-2-0-2-0----3-3-3-3-2-0-2-0--5-5-5-5-3-2-3-0--3-3-3-3-2-0-2-0-- 
 
e------------------------------------------------------------------------------------------------------------------------------- 
B------------------------------------------------------------------------------------------------------------------------------ 
G------------------------------------------------------------------------------------------------------------------------------- 
D------0-----------0-------0---------0---------0------------0--------0------0---------------0------0-------0---------------- 
A----0--0--0----0---0---0---0----0---0-----0---0--------0---0---0---0--0---0---0------0---0--0---0---0---0--0----------- 
D--0------0--8-7------7-------12--------12--------8-7-5-------5-------3-------3---8-7-------7-------2-------2---3-2-0--- 
 
 
 
by Bicoelvis (smile) 

Compartilhe esta música: novo

QR Code
Copiar