Holy Mountain (Live In Big Day Out 2005)

System Of A Down

 
Tuning: CGCFAD 
 
X  - mute 
~  - Let ring 
 
 
Intro x2 
--------------------------------------------------------------------------------------- 
--------------------------------------------------------------------------------------- 
--------------------------------------------------------------------------------------- 
---1--1-----8--8------13--13--------6--6------4--4------8--8------3--3---------1--1---- 
--1--1--9--8--8--8---13--13--------6--6--6---4--4------8--8--8---3--3---------1--1--1-- 
-1--1--9--8--8--8---13--13--9--8--6--6--6---4--4---9--8--8--8---3--3---4--3--1--1--1--- 
 
Intro goes on x2 
------------------------------------- 
------------------------------------- 
------------------------------------- 
-1-9-8---13-9-8-6---4-9-8---3-4-3-1-- 
-1-9-8---13-9-8-6---4-9-8---3-4-3-1-- 
-1-9-8---13-9-8-6---4-9-8---3-4-3-1-- 
 
Verse x1 
------------------------------------ 
------------------------------------ 
------------------------------------ 
------------------------------------ 
------------------------------------ 
-1~~-1~~-1~~-3--4--6--8--9--11--13-- 
 
Pre Chorus x1 
---------------------------------------------------------------------------- 
---------------------------------------------------------------------------- 
-----------------------------3-4-6-8-10-12-14-16---------------------------- 
-----------------------------x-x-x-x-xx-xx-xx-xx---------------------------- 
-----------------------------1-2-4-6-8--10-12-14---------------------------- 
-99--99--99--99-8-11-8-------------------------------99--99--99--99-8-11-8-- 
 
Chorus x1 
 
x4 
------------------------------------------------- 
------------------------------------------------- 
------------------------------------------------- 
-------------1-9-8---13-9-8-6---4-9-8---3-4-3-1-- 
-------------1-9-8---13-9-8-6---4-9-8---3-4-3-1-- 
-9-8-6-9-1---1-9-8---13-9-8-6---4-9-8---3-4-3-1-- 
 
Verse x1 
------------------------------------ 
------------------------------------ 
------------------------------------ 
------------------------------------ 
------------------------------------ 
-1~~-1~~-1~~-3--4--6--8--9--11--13-- 
 
Pre Chorus x1 
---------------------------------------------------------------------------- 
---------------------------------------------------------------------------- 
-----------------------------3-4-6-8-10-12-14-16---------------------------- 
-----------------------------x-x-x-x-xx-xx-xx-xx---------------------------- 
-----------------------------1-2-4-6-8--10-12-14---------------------------- 
-99--99--99--99-8-11-8-------------------------------99--99--99--99-8-11-8-- 
 
Chorus x4 
------------ 
------------ 
------------ 
------------ 
------------ 
-9-8-6-9-1-- 
 
Interlude x6 
------------ 
------------ 
------------ 
------------ 
------------ 
-8-9-11-13-- 
 
End x4 
------------------------------------ 
------------------------------------ 
------------------------------------ 
1-9-8---13-9-8-6---4-9-8---3-4-3-1-- 
1-9-8---13-9-8-6---4-9-8---3-4-3-1-- 
1-9-8---13-9-8-6---4-9-8---3-4-3-1-- 
 
 
_______________________________________________________ 
Contribuição: Heitor Loureiro([email protected]) 

Compartilhe esta música: novo

QR Code
Copiar