Holly mountain

System Of A Down

Intro: 
 
D----------------------------------------------------------------------| 
A----------------------------------------------------------------------| 
F----------------------------------------------------------------------| 
C----0----0---0---0-----0----0-----0--------0----0----0----0---0---0---| 
G---0----0-------0--0--0----0--0-----------0--0-0----0--0---------0--0-| 
C--0----0----8--7----7----12----12----8-7-5----5----3----3----8--7-----| 
 
D----------------------------------------------------------------------| 
A----------------------------------------------------------------------| 
F----------------------------------------------------------------------| 
C----0----0----0--------0----0----0----0---0---0----0-----0----0-------| 
G---0----0--0----------0--0-0--0-0--0-0-------0--0-0-----0--0----------| 
C--7----2----2----3-2-0----0----0----0----8--7----7----12----12----8-7-| 
 
D----------------------------------------------------------------------| 
A----------------------------------------------------------------------| 
F----------------------------------------------------------------------| 
C---0----0----0---0----0---0----0----0---0-----------------------------| 
G--0--0-0----0--0---------0--0-0----0--0-------------------------------| 
C-5----5----3----3----8--7----7----2----2----3-2-----------------------| 
 
 
D----------------------------------------------------------------------| 
A----------------------------------------------------------------------| 
F----------------------------------------------------------------------| 
C--0-0-0-0--8-7-7-7-7-7--12-12-12--8-7-5-5-5-5-5--3-3-3-3--8-7-7-7-7-7-| 
G--0-0-0-0--8-7-7-7-7-7--12-12-12--8-7-5-5-5-5-5--3-3-3-3--8-7-7-7-7-7-| 
C--0-0-0-0--8-7-7-7-7-7--12-12-12--8-7-5-5-5-5-5--3-3-3-3--8-7-7-7-7-7-| 
 
D----------------------------------------------------------------------| 
A----------------------------------------------------------------------| 
F----------------------------------------------------------------------| 
C--2-2-2--3-2-0------------0--8-7--7--12--12--8-7-5--5--3--3--8-7--7---| 
G--2-2-2--3-2-0------------0--8-7--7--12--12--8-7-5--5--3--3--8-7--7---| 
C--2-2-2--3-2-0--///////---0--8-7--7--12--12--8-7-5--5--3--3--8-7--7---| 
 
D----------------------------------------------------------------------| 
A----------------------------------------------------------------------| 
F----------------------------------------------------------------------| 
C--2--3-2-0---------------------------0--------------------------------| 
G--2--3-2-0---------------------------0--------------------------------| 
C--2--3-2-0---------------------------0--------------------------------| 
 
Verse: 
 
Guitar 1: plays twice 
D----------------------------------------------------------------------| 
A----------------------------------------------------------------------| 
F----------------------------------------------------------------------| 
C----------------------------------------------------------------------| X2 
G----------------------------------------------------------------------| 
C---0------2------3------5----7--8--10--12-----------------------------| 
 
Guitar 2: plays after guitar 1 plays once: 
D----10----10----10----10----10----12----12----12----12----12----------| 
A-----10-8--10-8--10-8--10-8--10-8--10-8--10-8--10-8--10-8--10-8-------| 
F----------------------------------------------------------------------| 
C----------------------------------------------------------------------| 
G----------------------------------------------------------------------| 
C----------------------------------------------------------------------| 
 
D----13-13-13-13-12-12-15-15-15----------------------------------------| 
A----------------------------------------------------------------------| 
F----------------------------------------------------------------------| 
C----------------------------------------------------------------------| 
G----------------------------------------------------------------------| 
C----------------------------------------------------------------------| 
 
Pre-Chorus: 
D----------------------------------------------------------------------| 
A----------------------------------------------------------------------| 
F---------------------------------------7--9--10-12--14--15--17--19----| 
C---1-1----1-1----1-1----1-1-0-3-1-0-0--x--x---x--x---x---x---x--x-----| 
G---1-1----1-1----1-1----1-1-0-3-1-0-0--5--7--8--10--12--13--15--17----| 
C---1-1----1-1----1-1----1-1-0-3-1-0-0---------------------------------| 
 
D----------------------------------------------------------------------| 
A----------------------------------------------------------------------| 
F----------------------------------------------------------------------| 
C---1-1----1-1----1-1----1-1-0-3-1-0-0---------------------------------| 
G---1-1----1-1----1-1----1-1-0-3-1-0-0---------------------------------| 
C---1-1----1-1----1-1----1-1-0-3-1-0-0---------------------------------| 
 
Chorus: 
D----------------------------------------------------------------------| 
A----------------------------------------------------------------------| 
F----------------------------------------------------------------------| 
C---8--8--8-8--7-5-7-0--0--0-0-0-0-------------------------------------| X4 
G---8--8--8-8--7-5-7-0--0--0-0-0-0-------------------------------------| 
C---8--8--8-8--7-5-7-0--0--0-0-0-0-------------------------------------| 
 
D----------------------------------------------------------------------| 
A----------------------------------------------------------------------| 
F----------------------------------------------------------------------| 
C---0--0--8-7--7--12--12--8-7-5--5--3--3--8-7--7--2--3-2---------------| 
G---0--0--8-7--7--12--12--8-7-5--5--3--3--8-7--7--2--3-2---------------| 
C---0--0--8-7--7--12--12--8-7-5--5--3--3--8-7--7--2--3-2---------------| 
 
Verse 2: 
 
Guitar 1: only plays once this time: 
D----------------------------------------------------------------------| 
A----------------------------------------------------------------------| 
F----------------------------------------------------------------------| 
C----------------------------------------------------------------------| 
G----------------------------------------------------------------------| 
C---0------2------3------5----7--8--10--12-----------------------------| 
 
Guitar 2: plays with Guitar 1: 
D----10----10----10----10----10----12----12----12----12----12----------| 
A-----10-8--10-8--10-8--10-8--10-8--10-8--10-8--10-8--10-8--10-8-------| 
F----------------------------------------------------------------------| 
C----------------------------------------------------------------------| 
G----------------------------------------------------------------------| 
C----------------------------------------------------------------------| 
 
D----13-13-13-13-12-12-15-15-15----------------------------------------| 
A----------------------------------------------------------------------| 
F----------------------------------------------------------------------| 
C----------------------------------------------------------------------| 
G----------------------------------------------------------------------| 
C----------------------------------------------------------------------| 
 
Pre-Chorus: 
D-----------------------------------------------------------------------| 
A-----------------------------------------------------------------------| 
F---------------------------------------7--9--10-12--14--15--17--19-----| 
C---1-1----1-1----1-1----1-1-0-3-1-0-0--x--x--x--x---x---x---x---x------| 
G---1-1----1-1----1-1----1-1-0-3-1-0-0--5--7--8--10--12--13--15--17-----| 
C---1-1----1-1----1-1----1-1-0-3-1-0-0----------------------------------| 
 
D----------------------------------------------------------------------| 
A----------------------------------------------------------------------| 
F----------------------------------------------------------------------| 
C---1-1----1-1----1-1----1-1-0-3-1-0-0---------------------------------| 
G---1-1----1-1----1-1----1-1-0-3-1-0-0---------------------------------| 
C---1-1----1-1----1-1----1-1-0-3-1-0-0---------------------------------| 
 
Chorus: 3 times this time 
D----------------------------------------------------------------------| 
A----------------------------------------------------------------------| 
F----------------------------------------------------------------------| 
C---8--8--8-8--7-5-7-0--0--0-0-0-0-------------------------------------| 
G---8--8--8-8--7-5-7-0--0--0-0-0-0-------------------------------------| 
C---8--8--8-8--7-5-7-0--0--0-0-0-0-------------------------------------| 
 
Bridge: 
D-----------------------------------------------------------------------| 
A-----------------------------------------------------------------------| 
F-----------------------------------------------------------------------| 
C---8--8--8-8--7-5-7----------------------------------------------------| 
G---8--8--8-8--7-5-7----------------------------------------------------| 
C---8--8--8-8--7-5-7---7--8--10--12--7--8--10--12--7-8-10-12--7-8-10-12-| 
 
D----------------------------------------------------------------------| 
A----------------------------------------------------------------------| 
F----------------------------------------------------------------------| 
C----------------------------------------------------------------------| 
G----------------------------------------------------------------------| 
C---7-8-10-12--7-8-10-12--*7-8-10-12*X8--------------------------------| 
 
D----------------------------------------------------------------------| 
A----------------------------------------------------------------------| 
F----------------------------------------------------------------------| 
C--0-0-0-0--8-7-7-7-7-7--12-12-12--8-7-5-5-5-5-5--3-3-3-3--8-7-7-7-7-7-| 
G--0-0-0-0--8-7-7-7-7-7--12-12-12--8-7-5-5-5-5-5--3-3-3-3--8-7-7-7-7-7-| 
C--0-0-0-0--8-7-7-7-7-7--12-12-12--8-7-5-5-5-5-5--3-3-3-3--8-7-7-7-7-7-| 
 
D----------------------------------------------------------------------| 
A----------------------------------------------------------------------| 
F----------------------------------------------------------------------| 
C--2-2-2--3-2-0--------------------------------------------------------| 
G--2-2-2--3-2-0--------------------------------------------------------| 
C--2-2-2--3-2-0---//////-----------------------------------------------| 
 
D----------------------------------------------------------------------| 
A----------------------------------------------------------------------| 
F----------------------------------------------------------------------| 
C--0-0-0-0--8-7-7-7-7-7--12-12-12--8-7-5-5-5-5-5--3-3-3-3--8-7-7-7-7-7-| 
G--0-0-0-0--8-7-7-7-7-7--12-12-12--8-7-5-5-5-5-5--3-3-3-3--8-7-7-7-7-7-| 
C--0-0-0-0--8-7-7-7-7-7--12-12-12--8-7-5-5-5-5-5--3-3-3-3--8-7-7-7-7-7-| 
 
D----------------------------------------------------------------------| 
A----------------------------------------------------------------------| 
F----------------------------------------------------------------------| 
C--2-2--3-2------------------------------------------------------------| 
G--2-2--3-2------------------------------------------------------------| 
C--2-2--3-2------------------------------------------------------------| 
 
D----------------------------------------------------------------------| 
A----------------------------------------------------------------------| 
F----------------------------------------------------------------------| 
C--0-0-0-0--8-7-7-7-7-7--12-12-12--8-7-5-5-5-5-5--3-3-3-3--8-7-7-7-7-7-| 
G--0-0-0-0--8-7-7-7-7-7--12-12-12--8-7-5-5-5-5-5--3-3-3-3--8-7-7-7-7-7-| 
C--0-0-0-0--8-7-7-7-7-7--12-12-12--8-7-5-5-5-5-5--3-3-3-3--8-7-7-7-7-7-| 
 
D----------------------------------------------------------------------| 
A----------------------------------------------------------------------| 
F----------------------------------------------------------------------| 
C--2-2--3-2------------------------------------------------------------| 
G--2-2--3-2------------------------------------------------------------| 
C--2-2--3-2------------------------------------------------------------| 
 
D----------------------------------------------------------------------| 
A----------------------------------------------------------------------| 
F----------------------------------------------------------------------| 
C---1-1----1-1-1--1-1-1-1--1-1-0-3-1-0-0-------------------------------| 
G---1-1----1-1-1--1-1-1-1--1-1-0-3-1-0-0-------------------------------| 
C---1-1----1-1-1--1-1-1-1--1-1-0-3-1-0-0-------------------------------| 
 
D----------------------------------------------------------------------| 
A----------------------------------------------------------------------| 
F----------------------------------------------------------------------| 
C--0-0-0-0--8-7-7-7-7-7--12-12-12--8-7-5-5-5-5-5--3-3-3-3--8-7-7-7-7-7-| 
G--0-0-0-0--8-7-7-7-7-7--12-12-12--8-7-5-5-5-5-5--3-3-3-3--8-7-7-7-7-7-| 
C--0-0-0-0--8-7-7-7-7-7--12-12-12--8-7-5-5-5-5-5--3-3-3-3--8-7-7-7-7-7-| 
 
D----------------------------------------------------------------------| 
A----------------------------------------------------------------------| 
F----------------------------------------------------------------------| 
C--2-2--3-2------------------------------------------------------------| 
G--2-2--3-2------------------------------------------------------------| 
C--2-2--3-2------------------------------------------------------------| 
 
D----------------------------------------------------------------------| 
A----------------------------------------------------------------------| 
F----------------------------------------------------------------------| 
C---1-1----1-1-1--1-1-1-1--1-1-0-3-1-0-0-------------------------------| 
G---1-1----1-1-1--1-1-1-1--1-1-0-3-1-0-0-------------------------------| 
C---1-1----1-1-1--1-1-1-1--1-1-0-3-1-0-0-------------------------------| 
 
Chorus: 3 times 
D----------------------------------------------------------------------| 
A----------------------------------------------------------------------| 
F----------------------------------------------------------------------| 
C---8--8--8-8--7-5-7-0--0--0-0-0-0-------------------------------------| 
G---8--8--8-8--7-5-7-0--0--0-0-0-0-------------------------------------| 
C---8--8--8-8--7-5-7-0--0--0-0-0-0-------------------------------------| 
 
D----------------------------------------------------------------------| 
A----------------------------------------------------------------------| 
F----------------------------------------------------------------------| 
C---8--8--8-8--7-5-7---------------------------------------------------| 
G---8--8--8-8--7-5-7---------------------------------------------------| 
C---8--8--8-8--7-5-7---------------------------------------------------| 
 
D----------------------------------------------------------------------| 
A----------------------------------------------------------------------| 
F----------------------------------------------------------------------| 
C--0-0-0-0--8-7-7-7-7-7--12-12-12--8-7-5-5-5-5-5--3-3-3-3--8-7-7-7-7-7-| 
G--0-0-0-0--8-7-7-7-7-7--12-12-12--8-7-5-5-5-5-5--3-3-3-3--8-7-7-7-7-7-| 
C--0-0-0-0--8-7-7-7-7-7--12-12-12--8-7-5-5-5-5-5--3-3-3-3--8-7-7-7-7-7-| 
 
D----------------------------------------------------------------------| 
A----------------------------------------------------------------------| 
F----------------------------------------------------------------------| 
C--2-2-2--3-2-0--------------------------------------------------------| 
G--2-2-2--3-2-0--------------------------------------------------------| 
C--2-2-2--3-2-0---//////-----------------------------------------------| 
 
D----------------------------------------------------------------------| 
A----------------------------------------------------------------------| 
F----------------------------------------------------------------------| 
C--0---8-7---12---8-7-5---3---8-7---------2--3-2-0---------------------| 
G--0---8-7---12---8-7-5---3---8-7---------2--3-2-0---------------------| 
C--0---8-7---12---8-7-5---3---8-7--/////--2--3-2-0---------------------| 
 
Ending: 
 
D----------------------------------------------------------------------| 
A----------------------------------------------------------------------| 
F----------------------------------------------------------------------| 
C----0----0---0---0-----0----0-----0--------0----0----0----0---0---0---| 
G---0----0-------0--0--0----0--0-----------0--0-0----0--0---------0--0-| 
C--0----0----8--7----7----12----12----8-7-5----5----3----3----8--7-----| 
 
D----------------------------------------------------------------------| 
A----------------------------------------------------------------------| 
F----------------------------------------------------------------------| 
C----0----0-----0---0-----0----0---------------------------------------| 
G---0----0---------------0--0-0----------------------------------------| 
C--7----2----2-3---2----0----0-----------------------------------------| 
  
  
 

Compartilhe esta música: novo

QR Code
Copiar