Highway Song

System Of A Down

Intro:
D||----------------------|----------------------|----------------------|
A||----------------------|----------------------|----------------------|
F||----------------------|----------------------|----------------------|
C||----------------------|----------------------|----------------------| repeat till main riff
G||-8p7-7p5-5-5-6-5------|-3-3h5-5-5-6-5--------|----------------------|
C||----------------------|----------------------|----------------------| 

Main Riff/Chorus:
D||----------------------|----------------------|----------------------|
A||----------------------|----------------------|----------------------|
F||----------------------|----------------------|----------------------|
C||----------------------|----------------------|----------------------|
G||-0-7-3-8-7-8----------|----------------------|----------------------|
C||-0-7-3-8-7-8----------|----------------------|----------------------| 

Verse Riff:
D||----------------------|----------------------|----------------------|
A||----------------------|----------------------|----------------------|
F||----------------------|----------------------|----------------------| repeat till chorus
C||----------------------|----------------------|----------------------|
G||-0-7-3-8-7-8-7--------|-0-7-3-8-7-8----------|----------------------|
C||-0-7-3-8-7-8-7--------|-0-7-3-8-7-8----------|----------------------| 
P.M......................................................

D||----------------------|----------------------|----------------------|
A||----------------------|----------------------|----------------------|
F||-10-9-7-7-8-7---------|-5-5-7-7-8-7----------|----------------------|
C||----------------------|----------------------|----------------------|
G||----------------------|----------------------|----------------------|
C||----------------------|----------------------|----------------------| 

D||----------------------|----------------------|----------------------|
A||----------------------|----------------------|----------------------|
F||----------------------|----------------------|----------------------|
C||----------------------|----------------------|----------------------|
G||-0-0-7-7-3-3-8-8------|----------------------|----------------------|
C||-0-0-7-7-3-3-8-8------|----------------------|----------------------|

Compartilhe esta música: novo

QR Code
Copiar