Hey Ms Hilton

System Of A Down

This is the whole song. It's pretty easy. I'm positive that it is at least 99.9% 
accurate but if you have any suggestions or corrections send them to [email protected] 
 
E-----------------|-----------------|-----------------|-----------------| 
B-----------------|-----------------|-----------------|-----------------| 
G-----------------|-5-5-4-----------|-----------------|-5-5-4-----------| 
D-------5---------|-5-5-4-----------|-------5---------|-5-5-4-----------| 
A-5h7-----7-------|-3-3-2-----------|-5h7-----7-------|-3-3-2-----------| 
E-----0-----------|-----------------|-----0-----------|-----------------| 
  
 
E-----------------|-----------------|-----------------|-----------------| 
B-----------------|-----------------|-----------------|-----------------| 
G-----------------|-5-5-4-----------|-----------------|-5-5-4-----------| 
D-------5---------|-5-5-4-----------|-------5---------|-5-5-4-----------| 
A-5h7-----7-------|-3-3-2-----------|-5h7-----7-------|-3-3-2-----------| 
E-----0-----------|-----------------|-----0-----------|-----------------| 
  
E-----------------|-----------------|-----------------|-----------------| 
B-----------------|-----------------|-----------------|-----------------| 
G-----------------|-5-5-4-----------|-----------------|-5-5-4-----------| 
D-------5---------|-5-5-4-----------|-------5---------|-5-5-4-----------| 
A-5h7-----7-------|-3-3-2-----------|-5h7-----7-------|-3-3-2-----------| 
E-----0-----------|-----------------|-----0-----------|-----------------| 
  
E-----------------|-----------------| 
B-----------------|-----------------| 
G-----------------|-5-5-4-----------| 
D-------5---------|-5-5-4-----------| 
A-5h7-----7-------|-3-3-2-----------| 
E-----0-----------|-----------------| 
 
Chorus 
E-----------------|-----------------| 
B-----------------|-----------------| 
G-----------------|-4-4-4-4-4-4-4-4-| 
D-4-4-4-4-4-4-4-4-|-4-4-4-4-4-4-4-4-| 
A-4-4-4-4-4-4-4-4-|-2-2-2-2-2-2-2-2-| 
E-2-2-2-2-2-2-2-2-|-----------------| 
 
 
E-----------------|-----------------|-----------------| 
B-----------------|-----------------|-----------------| 
G-----------------|-----------------|-----------------| 
D-2-----5----7----|-2-----5-----7---|-2-----5-----7---| 
A-2-----5----7----|-2-----5-----7---|-2-----5-----7---| 
E-0-----3----5----|-0-----3-----5---|-0-----3-----5---| 
 
E-----------------|-----------------| 
B-----------------|-----------------| 
G-----------------|-4-4-4-4-4-4-4-4-| 
D-4-4-4-4-4-4-4-4-|-4-4-4-4-4-4-4-4-| 
A-4-4-4-4-4-4-4-4-|-2-2-2-2-2-2-2-2-| 
E-2-2-2-2-2-2-2-2-|-----------------| 
 
 
E-----------------|-----------------|-----------------|-----------------| 
B-----------------|-----------------|-----------------|-----------------| 
G-----------------|-5-5-4-----------|-----------------|-5-5-4-----------| 
D-------5---------|-5-5-4-----------|-------5---------|-5-5-4-----------| 
A-5h7-----7-------|-3-3-2-----------|-5h7-----7-------|-3-3-2-----------| 
E-----0-----------|-----------------|-----0-----------|-----------------| 
  
E-----------------|-----------------|-----------------|-----------------| 
B-----------------|-----------------|-----------------|-----------------| 
G-----------------|-5-5-4-----------|-----------------|-5-5-4-----------| 
D-------5---------|-5-5-4-----------|-------5---------|-5-5-4-----------| 
A-5h7-----7-------|-3-3-2-----------|-5h7-----7-------|-3-3-2-----------| 
E-----0-----------|-----------------|-----0-----------|-----------------| 
  
E-----------------|-----------------| 
B-----------------|-----------------| 
G-----------------|-5-5-4-----------| 
D-------5---------|-5-5-4-----------| 
A-5h7-----7-------|-3-3-2-----------| 
E-----0-----------|-----------------| 
 
 
 
E-----------------|-----------------| 
B-----------------|-----------------| 
G-----------------|-4-4-4-4-4-4-4-4-| 
D-4-4-4-4-4-4-4-4-|-4-4-4-4-4-4-4-4-| 
A-4-4-4-4-4-4-4-4-|-2-2-2-2-2-2-2-2-| 
E-2-2-2-2-2-2-2-2-|-----------------| 
 
 
E-----------------|-----------------|-----------------| 
B-----------------|-----------------|-----------------| 
G-----------------|-----------------|-----------------| 
D-2-----5----7----|-2-----5-----7---|-2-----5-----7---| 
A-2-----5----7----|-2-----5-----7---|-2-----5-----7---| 
E-0-----3----5----|-0-----3-----5---|-0-----3-----5---| 
 
E-----------------|-----------------| 
B-----------------|-----------------| 
G-----------------|-4-4-4-4-4-4-4-4-| 
D-4-4-4-4-4-4-4-4-|-4-4-4-4-4-4-4-4-| 
A-4-4-4-4-4-4-4-4-|-2-2-2-2-2-2-2-2-| 
E-2-2-2-2-2-2-2-2-|-----------------| 
 
SOLO: 
 
 
E-----------------|-----------------|-----------------|-----------------| 
B-----------------|-----------------|-----------------|-----------------| 
G--0--------------|--0--------------|-0---------------|-0---------------| 
D-2-2-------------|-2-2-------------|--2--------------|--2--------------| 
A----1b-----------|----1b-----------|---1b------------|---1b------------| 
E-------3-5-3-5-3-|------3-5-3-5b---|------3-5-3-5b-3-|------3-5-3-5/3--| 
 
E-----------------|-----------------|-----------------| 
B-----------------|-----------------|-----------------| 
G-0---------------|-0---------------|-0---------------| 
D--2--------------|--2--------------|--2--------------| 
A---1b------------|---1b------------|---1b------------| 
E------3-5-3-5-3--|-----3-5-3-5~~---|-----3-5-3-5-3---| 
 
 
E-----------------|-----------------| 
B-----------------|-----------------| 
G-----------------|-4-4-4-4-4-4-4-4-| 
D-4-4-4-4-4-4-4-4-|-4-4-4-4-4-4-4-4-| 
A-4-4-4-4-4-4-4-4-|-2-2-2-2-2-2-2-2-| 
E-2-2-2-2-2-2-2-2-|-----------------| 
 
 
E-----------------|-----------------|-----------------| 
B-----------------|-----------------|-----------------| 
G-----------------|-----------------|-----------------| 
D----2------------|-----5-5---------|---7-------------| 
A----2------------|-----5-5---------|---7-------------| 
E----0------------|-----3-3---------|---5-------------| 
       Let ring                           Let Ring 
 
 
      
E-----------------|-----------------| 
B-----------------|-----------------| 
G-----------------|-4-4-4-4-4-4-4-4-| 
D-4-4-4-4-4-4-4-4-|-4-4-4-4-4-4-4-4-| 
A-4-4-4-4-4-4-4-4-|-2-2-2-2-2-2-2-2-| 
E-2-2-2-2-2-2-2-2-|-----------------| 
 
E-----------------|-----------------|-----------------| 
B-----------------|-----------------|-----------------| 
G-----------------|-----------------|-----------------| 
D-2-----5----7----|-2-----5-----7---|-2-----5-----7---| 
A-2-----5----7----|-2-----5-----7---|-2-----5-----7---| 
E-0-----3----5----|-0-----3-----5---|-0-----3-----5---| 
 
E-----------------|-----------------| 
B-----------------|-----------------| 
G-----------------|-4-4-4-4-4-4-4-4-| 
D-4-4-4-4-4-4-4-4-|-4-4-4-4-4-4-4-4-| 
A-4-4-4-4-4-4-4-4-|-2-2-2-2-2-2-2-2-| 
E-2-2-2-2-2-2-2-2-|-----------------| 
 
 
 
Ending 
E-----------------|-----------------|-----------------|-----------------| 
B-----------------|-----------------|-----------------|-----------------| 
G-----------------|-5-5-4-----------|-----------------|-5-5-4-----------| 
D-------5---------|-5-5-4-----------|-------5---------|-5-5-4-----------| 
A-5h7-----7-------|-3-3-2-----------|-5h7-----7-------|-3-3-2-----------| 
E-----0-----------|-----------------|-----0-----------|-----------------| 
  
E-----------------|-----------------|-----------------|-----------------| 
B-----------------|-----------------|-----------------|-----------------| 
G-----------------|-5-5-4-----------|-----------------|-----------------| 
D-------5---------|-5-5-4-----------|-------5---------|-----------------| 
A-5h7-----7-------|-3-3-2-----------|-5h7-----7-------|-3-2-0---0-------| 
E-----0-----------|-----------------|-----0-----------|-------3---0-----| 
 
 
 
   2nd Guitar part at end (Played with the above ending) 
 
 
E-----------------|-----------------|-----------------|-----------------| 
B-----------------|-----------------|-----------------|-----------------| 
G-9b----7b--------|-5b5-4-----------|-9b----7b--------|-5b5-4-----------| 
D-----------------|-----------------|-----------------|-----------------| 
A-----------------|-----------------|-----------------|-----------------| 
E-----------------|-----------------|-----------------|-----------------| 
 
E-----------------|-----------------|-----------------|-----------------| 
B-----------------|-----------------|-----------------|-----------------| 
G-9b----7b--------|-5b5-4-----------|-9b----7b--------|-5b5-4-----------| 
D-----------------|-----------------|-----------------|-----------------| 
A-----------------|-----------------|-----------------|-----------------| 
E-----------------|-----------------|-----------------|-----------------|

Compartilhe esta música: novo

QR Code
Copiar