Goodbye Blue Sky

System Of A Down

song: Goodbye Blue Sky
artist/band: System of a Down
tabbed by: roseynuts

tuning: (CGCFAD) drop-D and down one step.

intro:  (almost all of the song!)

d----------------------|------------------------------
A----------------------|-----play---------------------
F-----------o----------|---4-times--------------------
C------4-------4---4---|------------------------------
G----5---5-------5-----|------------------------------
C----------------------|------------------------------


d------------------play 2 times-----------------------
A-----------------------------------------------------
F----------o-----------o-----------o-----------o------
C-------4-----4-----4-----4-----4-----4-----4-----4---
G----2-----------2-----------2-----------2------------
C-----------------------------------------------------


change up part: (only happens once!)

d------------------play-4-times----------------------
A----------------------------------------------------
F-------5-------5------4--------4---------4-5--------
C---------o-------o-------o---------o----------------
G-----5------5-------5-------5---------5-------------
C----------------------------------------------------


those are the only riffs! just listen to the song to see 
where the riffs go, because this is not written
in order. smoothe song!

[email protected]

Compartilhe esta música: novo

QR Code
Copiar