Ego Brain (intro)

System Of A Down

    ___________________ 
   /System Of A Down  / Well, in first place I was trying to tab the song in 
  /Ego Brain         /  standard tuning until I realised that it was impossible 
 /Steal This Album! /   as the chorus are played with too low tunes to be played  
/__________________/    in standard so here's just the intro-riff. 
 
 
E||-------0h1p0---|-------------|-------0h1p0---|-------------| 
B||-----3-------3-|-------------|-----3-------3-|-------------| 
G||---2-----------|-----2-----2-|---2-----------|-----2-----2-| 
D||-0-------------|---0-----0---|-0-------------|---0-----0---| 
A||---------------|-------------|---------------|-------------| 
E||---------------|-3-----3-----|---------------|-3-----3-----| 
 
  |-------0h1p0---|-----3-------|-------13-------13-|-----1-----3-|| 
  |-----3-------3-|---1-----1---|----10-------10----|---1-----3---|| 
  |---2-----------|-------2---2-|-10-------10-------|-------------|| 
  |-0-------------|-------------|-------------------|-3-----5-----|| 
  |---------------|-3-----------|-------------------|-------------|| 
  |---------------|-------------|-------------------|-------------|| 

Compartilhe esta música: novo

QR Code
Copiar