Drugs Live

System Of A Down

Tom: C
Tuning:Drop C 
(C-G-C-F-A-D) 
 
This the song Daron played at the Lowlands Festival. 
 
Main Riff 
 
D------------------ 
A-3-3-3------3-3-3- 
F-2-2-2------2-2-2- 
C-0-0-0------0-0-0- 
G--------3-3------- 
C------------------ 
 
D------------------ 
A-3-3-3------3-3-3- 
F-2-2-2------2-2-2- 
C-0-0-0------0-0-0- 
G--------3-3------- 
C------------------ 
 
D------------------ 
A-3-3-3------3-3-3- 
F-2-2-2------2-2-2- 
C-0-0-0------0-0-0- 
G--------3-3------- 
C------------------ 

Compartilhe esta música: novo

QR Code
Copiar