Defy You

System Of A Down

Intro/ Chouris 
--------------------------------------| 
--------------------------------------| 
--------------------------------------| 
--------------------------------------|X2 
--7-8-9-8-----------------------------| 
--7-8-9-8-----7-000-8-000-9-000---8b--| 
 
Verse 
--------------------------------------| 
--------------------------------------| 
--------------------------------------| 
--------------------------------------|X2 
--7-8-9-8-----------------------------| 
--7-8-9-8-----7-000-8-000-9-000---8b--| 
Sole 
----------------------------------------------| 
-----------------------------------------777--| 
----------------------------------------------| 
-------------------------------------------8--|X2 
---------------------------------------7------| 
--7-8-9-8-----7-000-8-000-9-000---8b----------| 
Outre 
----------------------------------------| 
----------------------------------------| 
----------------------------------------| 
----------------------------------------|X2 
--7-8-9-8-------------------------------| 
--7-8-9-8-----7-000-8-000-9-000---8b----| 
 
Intro 
Verse 
Chorise 
Verse Sole verse 
Outro

Compartilhe esta música: novo

QR Code
Copiar