Deer Dance (solo)

System Of A Down

Goddamn, i got requests to tab it, so here is the solo 
CGCFAD tuning 
 
/-slide 
 
 
-------------------------------- 
-10-9-------------13-10--9------ 
-------9------------------------ 
----------12--------------12---- 
-------------------------------- 
-------------------------------- 
 
-------------------------------------------------- 
----------10-9------13-10-9/11-11-11-11----------- 
-15-14-12------9---------------------------------- 
-----------------12------------------------------- 
-------------------------------------------------- 
-------------------------------------------------- 
 
------------------------------------------------ 
-11/13-13-13-13-13/15-15-15-16-15-13------------ 
--------------------------------------14-15-14-- 
------------------------------------------------ 
------------------------------------------------ 
------------------------------------------------ 
 
--------------------------------- 
--------------------------------- 
-15-14-15-14-15-15-15-14-14-14--- 
--------------------------------- 
--------------------------------- 
--------------------------------- 
 
then play the chorus and the chorus again as outro 

Compartilhe esta música: novo

QR Code
Copiar