Deer Dance

System Of A Down

Tom: C
	     SONG: Deer Dance
	     BAND: System of a Down
	    ALBUM: Toxicity
   TRANSCRIBED BY: Chris Frazier ([email protected])
	     DATE: 07-25-2K1

 ----------------------------------------------------------------------------------------------

	TUNING: Drop d and down 1 step (C G C F A D)

     Riff 1:
    D|-----------------|
    A|-----------------|
    F|-----------------| (x)=not played the first few times
    C|-1-0-1-0-1-0-(1)-| pm=palm mute
    G|-1-0-1-0-1-0-(1)-|
    C|-1-0-1-0-1-0-(1)-|
     PM- - - - - -

     Riff 2:
    D|---------------------|
    A|---------------------|
    F|---------------------| x=harmonic
    C|-----------------5-|
    G|---------------------|
    C|-5-8/--3-7/--1-5-----|

     Riff 3:
    D|--------------------------------------|
    A|--------------------------------------|
    F|--------------------------------------| tp=tremlo pick
    C|----------------------------------5-|
    G|--------------------------------------|
    C|-5-8--3-7--1-5-0----5-8--3-7--1-5-----|
     TP- -  - -  - - -    - -  - -  - -
     PM- -  - -  - - -    - -  - -  - -

     Riff 4: (pushing little children...)
    D|-------------------|
    A|-------------------|
    F|-------------------|
    C|-1-0-1-0-1-0-0-(0)-|
    G|-1-0-1-0-1-0-0-(0)-|
    C|-1-0-1-0-1-0-0-(0)-|
     PM- - - - - - -  -

     Riff 5:
    D|--------------------------|
    A|--------------------------|
    F|-15-14-12-10--17-16-14-12-|
    C|--------------------------|
    G|--------------------------|
    C|--------------------------|
     PM-- -- -- --  -- -- -- --

     For the solo, just improve riff 5... i'm too lazy to tab the whole thing out.

Compartilhe esta música: novo

QR Code
Copiar