Dead Is In My Room

System Of A Down

Tom: D
Tuning- Drop D 
 
Intro X3 
-------5-5----9-----------------------------| 
-----------7-8---0--------------------------| 
--------------------------------------------| 
--------------------------------------------| 
\-------------------9999999-----------------| 
--------------------9999999-----------------| 
 
Verse ( Did you notice somthing, it is the same as the intro but faster and you play it 7 X) 
-------5-5----9-----------------------------| 
-----------7-8---0--------------------------| 
--------------------------------------------| 
--------------------------------------------| 
\-------------------9999999-----------------| 
--------------------9999999-----------------| 
 
Chouris 
---------------------------------------------| 
---------------------------------------------| 
---------------------------------------------| 
\-------------------9999999------------------| 
--------------------9999999------------------| 
---------------------------------------------| 

Compartilhe esta música: novo

QR Code
Copiar