Cigaro (mezmerize)

System Of A Down

Tom: C
 
Afinaçao: Drop C (C G C F A D)  
 
Intro 
D|----------------------------------------------------------------|| 
A|----------------------------------------------------------------|| 
F|----------------------------------------------------------------|| 
C|-1-1-2p1-1-1-2p1-1-1-2p1-1-1-2p1--------------------------------|| 
G|-1-1-2p1-1-1-2p1-1-1-2p1-1-1-2p1--7-6-4-6-4-2-4-2---------------|| 
C|-1-1-2p1-1-1-2p1-1-1-2p1-1-1-2p1--------------------------------|| 
 
 
My #$%^ is much bigger than yours! 
D|----------------|| 
A|----------------|| 
F|----------------|| 
C|-1-1-1----------|| 
G|-1-1-1----------|| 
C|-1-1-1----------|| 
 
D|------------------------------------------------|| 
A|------------------------------------------------|| 
F|-----------------------------------8-8-8--------|| 
C|11-10-11-10---8-7-8-7----4-3--4-3--8-8-8--------|| 
G|-9/-8--9/-8---6/5-6/5----2/1--2/1--6-6-6--------|| 
C|------------------------------------------------|| 
 
Chorus  
D|----------------------------------------------------------------|| 
A|----------------------------------------------------------------|| 
F|----------------------------------------------------------------|| 
C|-1-1-2p1-1-1-2p1-1-1-2p1-1-1-2p1--------------------------------|| 
G|-1-1-2p1-1-1-2p1-1-1-2p1-1-1-2p1--7-6-4-6-4-2-4-2---------------|| 
C|-1-1-2p1-1-1-2p1-1-1-2p1-1-1-2p1--------------------------------|| 
 
 
Bridge 
D|---------------------------------------------|| 
A|---------------------------------------------|| 
F|---------------------------------------------|| 
C|---------------------------------------------|| 
G|-767676767676767676767676--7-6-4-6-4-2-4-2---|| 
C|---------------------------------------------|| 
 
Cant U see that i love my #$%^! 
D|-----------------------------------------------|| 
A|-----4-----4-----4-----4-----------------------|| 
F|-----3-----3-----3-----3-----------------------|| 
C|-1-1---1-1---1-1---1-1-------------------------|| 
G|-1-1---1-1---1-1---1-1-------------------------|| 
C|-1-1---1-1---1-1---1-1-------------------------|| 
 
D|------------------------------------------------|| 
A|--7676------------------------------------------|| 
F|-------8787-------------------------------------|| 
C|------------9898-6-5---5-4-5-----------------------|| 
G|---------------------------------------------|| 
C|------------------------------------------------|| 
 
We\'re the Regulators that deregulate 
D|------------------------------------------------|| 
A|------------------------------------------------|| 
F|-----------------------------------------1------|| 
C|--------------------------------------0---------|| 
G|-9898-11-10-11-10-6565-7676-21212121------------|| 
C|------------------------------------------------|| 
 
Same thing but when they Scream 
D|--------------------------------|| 
A|--------------------------------|| 
F|------------------88888---------|| 
C|-111-111-111-111--88888---------|| 
G|-111-111-111-111--66666---------|| 
C|-111-111-111-111----------------|| 
 
 
_______________________________________________________ 
Contribuição: fabio manoel demetrio([email protected]) 

Compartilhe esta música: novo

QR Code
Copiar