Chich N' Stu

System Of A Down

Tuning: Drop C (C.G.C.F.A.D)

Intro/Pre-Verse
|-------------|
|-14-14-14-14-|
|-12-12-12-12-|
|-------------|
|-------------|
|-------------|

Verse
|-------------------------|
|-------------------------|
|-------------------------|
|-------------------------|
|-11h12-11-12-11-12-11-12-|
|-11h12-11-12-11-12-11-12-|

Pre-Chorus
|-------------------------------------------|
|-------------------------------------------|
|-------------------------------------------|
|----11-12-14-12-11-12-14-12-11-12-14-12-11-|
|-11----------------------------------------|
|-11----------------------------------------|
p.m. .. .. .. .. .. .. .. .. .. .. .. .. ..

|----------------------------------------------|
|----------------------------------------------|
|----------------------------------------------|
|----------------------------------------------|
|-11--11-12-11--11-12-11--11-12-11-12-11-12-11-|
|-11--11-12-11--11-12-11--11-12-11-12-11-12-11-|

Chorus
|----------------------------------------------|
|----------------------------------------------|
|----------------------------------------------|
|----------------------------------------------|
|-11--11-12-11--11-12-11--11-12-11-12-11-12-11-|
|-11--11-12-11--11-12-11--11-12-11-12-11-12-11-|

Interlude
|-----10---------------------------------------------|
|---8------------------------------------------------|
|-8--------------------------------------------------|
|----------------------------------------------------|
|--------11--11-0-11--11-0-11--11-0-11-0-11-0-11-----|
|--------11--11-0-11--11-0-11--11-0-11-0-11-0-11-----|

|-----10-----------------------------------------------|
|---8--------------------------------------------------|
|-8----------------------------------------------------|
|------------------------------------------------------|
|---------11--11-12-11--11-12-11--11-12-11-12-11-12-11-|
|---------11--11-12-11--11-12-11--11-12-11-12-11-12-11-|

|-----10-|-----10-----8-----10-----8----10--10-11-10-11-10-11-10-11-|
|---8----|---8-----6-----8------6-----8-----------------------------|
|-8------|-8-----6-----8------6-----8-------------------------------|
|--------|----------------------------------------------------------|
|--------|----------------------------------------------------------|
|--------|----------------------------------------------------------|

Ordem:
Intro/Pre-Verse
Verse
Pre-Chorus
Chorus
Pre-Verse
Verse
Pre-Chorus
Chorus
Interlude
Verse
Pre-Chorus
Chorus

Compartilhe esta música: novo

QR Code
Copiar