INTRO:
|-------------------------------|
|-------------------------------|
|-------------------------------|
|-------------------------------|
|-------------------------------|
|-1-1-0-0-1-1-0-0-1-1-0-0-1-1-0-|

VERSE: (guitar 1)
|---------------------------------------------------------------------|
|---------------------------------------------------------------------|
|---------------------------------------------------------------------|
|-----7--------7--------6--------6-----------10--------------10-------|
|-5787-878-5787-878-4676-767-4676-767-8101110--111011-8101110--111011-|
|---------------------------------------------------------------------|

|-----------------------------------------------------------|
|------------------10-10-9-9-10-10-9-9-10-10-9-9-10-10-9-9--|
|--------------------7--7-7-7--7--7-7-7--7--7-7-7--7--7-7-7-|
|-----8--------8--------------------------------------------|
|-6898-989-6898-98------------------------------------------|
|-----------------------------------------------------------|
pm                   .  . . .  .  . . .  .  . . .  .  . . .

|-------78----------78----------78----------78----|
|--10910-------10910-------10910-------10910------|
|-7-------109-7-------109-7-------109-7-------109-|
|-------------------------------------------------|
|-------------------------------------------------|
|-------------------------------------------------|

VERSE: (guitar 2)
|------------------------------------------------------------------|
|------------------------------------------------------------------|
|------------------------------------------------------------------|
|------------------------------------------------------------------|
|-5555555555555555555555555555555544444444444444444444444444444444-|
|------------------------------------------------------------------|

|----------------------------------------------------------------|
|----------------------------------------------------------------|
|----------------------------------------------------------------|
|----------------------------------------------------------------|
|-10101010101010101010101010101010101010101010101010101010-8-7-6-|
|----------------------------------------------------------------|

|----------------------------------|
|----------------------------------|
|----------------------------------|
|----------------------------------|
|-66666666666666666666666666666666-|
|----------------------------------|

|-------------------------------------|
|-------------------------------------|
|-------------------------------------|
|-------------------------------------|
|-5555/8\5-5555/8\5-5555/8\5-5555/8\5-|
|-------------------------------------|

|-------------------------------------|
|-------------------------------------|
|-------------------------------------|
|-------------------------------------|
|-4444/7\4-4444/7\4-4444/7\4-4444/7\4-|
|-------------------------------------|

|-----------------------------------------|
|-----------------------------------------|
|-----------------------------------------|
|-----------------------------------------|
|-8888/11\8-8888/11\8-8888/11\8-8888/11\8-|
|-----------------------------------------|

|-------------------------------------|
|-------------------------------------|
|-------------------------------------|
|-------------------------------------|
|-6666/9\6-6666/9\6-6666/9\6-6666/9\6-|
|-------------------------------------|

CHORUS:
|---------------------------------------------------------------|
|---------------------------------------------------------------|
|-----------------------------3-3-2-2-3-3-2-2-3-3-2-2-3-3-2-----|
|-0------0------0------0------1-1-0-0-1-1-0-0-1-1-0-0-1-1-0-----|
|-0-XXXX-0-XXXX-0-XXXX-0-XXXX-1-1-0-0-1-1-0-0-1-1-0-0-1-1-0--8\-|
|-0-XXXX-0-XXXX-0-XXXX-0-XXXX-1-1-0-0-1-1-0-0-1-1-0-0-1-1-0--8\-|

|-----------------------------|
|-----------------------------|
|-----------------------------|
|-0------0------0------0------|
|-0-XXXX-0-XXXX-0-XXXX-0-XXXX-|
|-0-XXXX-0-XXXX-0-XXXX-0-XXXX-|

CHORUS END:
|---------------|
|---------------|
|---------------|
|-0-0-0-0-0-0-0-|
|-0-0-0-0-0-0-0-|
|-0-0-0-0-0-0-0-|

INTERLUDE:
|------------------------------------|
|-----10-9---10-12-13----------------|
|------9-8----9-11-12----------------|
|-0----7-6----7--9-10---3-2--2--2--2-|
|-0----7-6----7--9-10---3-2--2--2--2-|
|-0----7-6----7--9-10---3-2--2--2--2-|

OUTRO:
|--------------------------------|
|--------------------------------|
|------------------3-3-2-2-3-3-2-|
|-0-0-0-0-0-0-0-0--1-1-0-0-1-1-0-|
|-0-0-0-0-0-0-0-0--1-1-0-0-1-1-0-|
|-0-0-0-0-0-0-0-0--1-1-0-0-1-1-0-|

Compartilhe esta música: novo

QR Code
Copiar