Ballad Of Kurt Cobain

System Of A Down

Song: Ballad of Kurt Cobain 
Artist: System of a Down 
Instrument: Guitar 
Tabber: Rippleseeker 
 
Riff: 
E------------------------------------------------| 
B------------------------------------------------| 
G------------------3-3-------------------6-6-----| 
D----3-3-3-x-x-x-x-3-3--0--6-6-6-x-x-x-x-6-6-----| 
A----3-3-3-x-x-x-x-1-1--0--6-6-6-x-x-x-x-4-4-----| 
E----1-1-1-x-x-x-x------0--4-4-4-x-x-x-x---------| 
 
E------------------------------------------------| 
B------------------------------------------------| 
G------------------3-3-------------------6-6-----| 
D----3-3-3-x-x-x-x-3-3--0--6-6-6-x-x-x-x-6-6-----| 
A----3-3-3-x-x-x-x-1-1--0--6-6-6-x-x-x-x-4-4-----| 
E----1-1-1-x-x-x-x------0--4-4-4-x-x-x-x---------| 

Compartilhe esta música: novo

QR Code
Copiar