Atwa (V.2)

System Of A Down

System of a Down - ATWA 
 
Afinação da musica é em Dó Menor (C,G,C,F,A,D) 
PM - Palm Mute 
 / - Slide 
 h - Hammer on 
 
Intro/Verse: (Clean) 
|-------------------------------------------------------| 
|-------------------------------------------------------| 
|-------------------------------------------------------| 
|-----8-----7-----10-----12------13------12-----10----8-| 
|-------------------------------------------------------| 
|---5---5\3---3/7----7/8----8/10----10\8----8\7----7\5--| 
 
Chorus: (Distorção) 
|-----------------|-----------------|-----------------| 
|-----------------|-----------------|-----------------| 
|-----------------|-----------------|-----------------| 
|-5-5-5-5-5-5-5-5-|-5-5-5-5-5-5-5-5-|-5-5-5-5-5-5-5-5-| 
|-5-5-5-5-5-5-5-5-|-5-5-5-5-5-5-5-5-|-5-5-5-5-5-5-5-5-| 
|-5-5-5-5-5-5-5-5-|-5-5-5-5-5-5-5-5-|-5-5-5-5-5-5-5-5-| 
 
|-----------------|-----------------|-----------------| 
|-----------------|-----------------|-----------------| 
|-----------------|-----------------|-----------------| 
|-5-5-5-5-5-5-5-5-|-5-5-5-5-5-5-5-5-|-5-5-5-5-5-5-5-5-| 
|-5-5-5-5-5-5-5-5-|-5-5-5-5-5-5-5-5-|-5-5-5-5-5-5-5-5-| 
|-5-5-5-5-5-5-5-5-|-5-5-5-5-5-5-5-5-|-5-5-5-5-5-5-5-5-| 
 
|-----------------|-----------------| 
|-----------------|-----------------| 
|-----------------|-----------------| 
|-5-5-5-5-5-5-5-5-|-5-5-5-5-5-5-5-5-| 
|-5-5-5-5-5-5-5-5-|-5-5-5-5-5-5-5-5-| 
|-5-5-5-5-5-5-5-5-|-5-5-5-5-5-5-5-5-| 
 
Post-Chorus: (Distorção) 
|--------------|--------------|--------------|--------------| 
|--------------|--------------|--------------|--------------| 
|--------------|--------------|--------------|--------------| 
|-5--5--5--5h6-|-5--5--5--5h6-|-5--5--5--5h6-|-5--5--5--5h6-| 
|-5--5--5--5h6-|-5--5--5--5h6-|-5--5--5--5h6-|-5--5--5--5h6-| 
|-5--5--5--5h6-|-5--5--5--5h6-|-5--5--5--5h6-|-5--5--5--5h6-| 
 
Interlude: (Distorção) 
|-----------|---------------------|---------------------|----| 
|-----------|---------------------|---------------------|----| 
|-12--12\10-|-10/14--14/15--15/17-|-17\15--15\14--14\12-|-12-| 
|-X---X-\X--|-X-/X---X-/X---X-/X--|-X-\X---X-\X---X-\X--|-X--| 
|-10--10\8--|-8-/12--12/13--13/15-|-15\13--13\12--12\10-|-10-| 
|-----------|---------------------|---------------------|----| 
 
(Bend all notes fastly) 
|----------------------|-------------------------|-------------------| 
|-12-12-12-12-12-12-12-|-10-10-10-10-10-10-10-10-|-14-14-14-14-14-14-| 
|----------------------|-------------------------|-------------------| 
|----------------------|-------------------------|-------------------| 
|----------------------|-------------------------|-------------------| 
|----------------------|-------------------------|-------------------| 
 
|----------------------|-------------------------|-------------------| 
|-15-15-15-15-15-15-15-|-17-17-17-17-17-17-17-17-|-15-15-15-15-15-15-| 
|----------------------|-------------------------|-------------------| 
|----------------------|-------------------------|-------------------| 
|----------------------|-------------------------|-------------------| 
|----------------------|-------------------------|-------------------| 
 
|-------------------------|-----| 
|-14-14-14-14-14-14-14-14-|-12^-| 
|-------------------------|-----| 
|-------------------------|-----| 
|-------------------------|-----| 
|-------------------------|-----| 
 
Bridge: (Distorção) 
|------------------------|----------------|----------| 
|------------------------|----------------|----------| 
|------------------------|----------------|----------| 
|-5--5\3--3/7--7/8--8/10-|-10\8--8\7--7\5-|-5-5-5-5--| 
|-5--5\3--3/7--7/8--8/10-|-10\8--8\7--7\5-|-5-5-5-5--| 
|-5--5\3--3/7--7/8--8/10-|-10\8--8\7--7\5-|-5-5-5-5--| 
 
Qulquer Coisa enviar me um e-mail 
[email protected] 

Compartilhe esta música: novo

QR Code
Copiar