Atwa (afinação padrão)

System Of A Down

Aqui vai a tab de atwa, mas na afinação padrão, 
fica igual e é mais facil... 
 
E|---------------------------------------| 
B|---------------------------------------| 
G|--2----1----4----6----7----6----4----2-| 
D|---------------------------------------| 
A|---------------------------------------| 
E|2--2/0--0/4--4/5--5/7--7/5--5/4--4/2---|4x 
 
E|--------------| 
B|--------------| 
G|--------------| 
D|4-444-4444444-| 
A|4-444-4444444-| 
E|2-222-2222222-|4x 
 
E|---------------------------------------| 
B|---------------------------------------| 
G|--2----1----4----6----7----6----4----2-| 
D|---------------------------------------| 
A|---------------------------------------| 
E|2--2/0--0/4--4/5--5/7--7/5--5/4--4/2---|4x 
 
E|--------------|   |----------| 
B|--------------|   |----------| 
G|--------------|   |----------| 
D|4-444-4444444-|   |4-4-4-4/5-| 
A|4-444-4444444-|   |4-4-4-4/5-| 
E|2-222-2222222-|4x |2-2-2-2/3-|4x 
 
E|--------------------------------| 
B|--------------------------------| 
G|--------------------------------| 
D|4-4/2-2/6-6/7-7/9-9/7-7/6-6/4-4-| 
A|--------------------------------| 
E|--------------------------------| 
 
E|---------------------------------------------------------------------| 
B|-22-2-2---00-0-0---44-4-4---55-5-5---77-7-7---55-5-5---44-4-4---22-2-| 
G|---------------------------------------------------------------------| 
D|4--4-4-4/2--2-2-2/6--6-6-6/7--7-7-7/9--9-9-9/7--7-7-7/6--6-6-6/4--4--| 
A|---------------------------------------------------------------------| 
E|---------------------------------------------------------------------| 
 
E|--------------------------------| 
B|--------------------------------| 
G|--------------------------------| 
D|4-4/2-2/6-6/7-7/9-9/7-7/6-6/4-4-| 
A|4-4/2-2/6-6/7-7/9-9/7-7/6-6/4-4-| 
E|2-2/0-0/4-4/5-5/7-7/5-5/4-4/2-2-|2x 
 
E|--------------|   |----------| 
B|--------------|   |----------| 
G|--------------|   |----------| 
D|4-444-4444444-|   |4-4-4-4/5-| 
A|4-444-4444444-|   |4-4-4-4/5-| 
E|2-222-2222222-|4x |2-2-2-2/3-|4x 
 
editada e enviada por [email protected] 
flw... 

Compartilhe esta música: novo

QR Code
Copiar