Tom: C
I´ve uploaded a cover of the hidden Track of SOAD´s album TOXICITY and some people asked  
me for the tabs (which I played by ear). The track is called 'Arto' and is adapted from  
an old Armenian church song called 'Ter Voghormia' (Տեր Ողորմեա) which means 'Lord have mercy'. 

Tuning is DROP C (C G C F A D) 

Well then, here are the tabs 

D---------------------------------------------------------------------------| 
A-10----------10----------------10------------------------------------------| 
F------12--------12---10--12------------------------------------------------| 
C---------------------------------------------------------------------------| 
G---------------------------------------------------------------------------| 
C---------------------------------------------------------------------------| 

D---------------------------------------------------------------------------| 
A-11-----10-----------------------------------------------------------------| 
F----------------12---10---9----10---12----10---12---10---9---10------------| 
C---------------------------------------------------------------------------| 
G---------------------------------------------------------------------------| 
C---------------------------------------------------------------------------| 

D---------------------------------------------------------------------------| 
A-10----------10----11---13---11---10-------------------10----------10------| 
F--------12------------------------------12----10-------------12------------| 
C---------------------------------------------------------------------------| 
G---------------------------------------------------------------------------| 
C---------------------------------------------------------------------------| 

D---------------------------------------------------------------------------| 
A---------------------------------------------------------------------------| 
F--10---9----------------------9---10----12---9---10------------------------| 
C-----------12------10---12-------------------------------12----------------| 
G---------------------------------------------------------------------------| 
C---------------------------------------------------------------------------| 




D---------------------------------------------------------------------------| 
A---------------------------------------------------------------------------| 
F--14-----12-----14----12---10---12---14------------------------------------| 
C---------------------------------------------------------------------------| 
G--12-----10-----12---10-----8----10---10-----------------------------------| 
C---------------------------------------------------------------------------| 

D---------------------------------------------------------------------------| 
A---------------------------------------------------------------------------| 
F----15---14---12--10---9---10---12---10---12---10---9---10-----------------| 
C---------------------------------------------------------------------------| 
G---13---12----10---8---7---8----10----8---10----8---7----8-----------------| 
C---------------------------------------------------------------------------| 

D---------------------------------------------------------------------------| 
A---------------------------------------------------------------------------| 
F--14---12--14---15---17---15---14---12---10---14---12---14-----------------| 
C---------------------------------------------------------------------------| 
G--12--10---12---13--15----13---12--10----8----12---10---12-----------------| 
C---------------------------------------------------------------------------| 

D---------------------------------------------------------------------------| 
A---------------------------------------------------------------------------| 
F--10---9---7-----5---7---9---10---12---9---10---7--------------------------| 
C---------------------------------------------------------------------------| 
G---8---7---5-----3---5----7---8----10---7---8---5--------------------------| 
C---------------------------------------------------------------------------| 



That´s it. Enjoy! 

Compartilhe esta música: novo

QR Code
Copiar