American Dream

System Of A Down

Tom: C
Tuning: C G C F A D  
 
 
Intro  
 
-------------------------------------------------------------  
-15-15-15-15-15-17-15-13-15-15-15-17-13-15-15-17-15-15-15-17-  
-------------------------------------------------------------  
-------------------------------------------------------------  
-------------------------------------------------------------  
-------------------------------------------------------------  
 
Riff 1  
 
------------------------  
------------------------  
-7----------------------  
-7-00000000-------------  
-5-00000000-------------  
---00000000-10-12-13-12-  
 
Riff 2 / Chorus  
 
------------------------------------------------------------  
------------------------------------------------------------  
------------------------------------------------------------  
-1-1-1-1-1--7-7-7-7-7--0-0-0-0-0--6-6-6-6-6--11-11-11-11-11-  
-1-1-1-1-1--7-7-7-7-7--0-0-0-0-0--6-6-6-6-6--11-11-11-11-11-  
-1-1-1-1-1--7-7-7-7-7--0-0-0-0-0--6-6-6-6-6--11-11-11-11-11-  
 
Riff 3  
 
---------  
---------  
---------  
---------  
-0000000-  
-0000000-  
*******  
 
Riff 4  
 
------------------------  
------------------------  
-10~9~12~10~14~12~13~14-  
--x~x~-x~-x~-x~-x~-x~-x-  
--8~7~10~-8~12~10~11~12-  
--0~0~-0~-0~-0~-0~-0~-0-  
 
Riff 5  
 
-------------  
-------------  
----------15-  
-12-12-12----  
-------------  
------------- 

Compartilhe esta música: novo

QR Code
Copiar