Aerials (intro)

System Of A Down

tabbed by jono dallas 
 
there isnt really a special tunning it 
all sounds the same. i on,y did the intro  
cause i can play the rest but only really eva 
play the intro so here it is 
 
---------------------------------------------------------- 
---------------------------------------------------------- 
---------------------------------------------------------- 
-----0----0-----0-----0----0-----0---0-----0----0-----0--- 
---0----0-----0-----0----0-----0----0----0----0-----0----- 
-3----2-----0-----0----0----05----3----2----2-----2------- 
 
---------------------------------------------------------- 
---------------------------------------------------------- 
---------------------------------------------------------- 
-----0-----0-----0-----0---------0-----0-----0-----0-----0 
---0-----0-----0-----0-----0---0-----0-----0-----0-----0-- 
-05----7-----8-----7-----5---3-----2-----0-----0-----0---- 
 
----------------------------------------------------------- 
----------------------------------------------------------- 
----------------------------------------------------------- 
-----0-----0-----0-----0----0----0-----0----0------0---0--- 
---0-----0-----0-----0----0-----0-----0----0-----0----0---- 
-12---10-----7----7-----7----014----12---10---10----10----- 
 
----------------------------------------------------------- 
----------------------------------------------------------- 
----------------------------------------------------------- 
------0-----0-----0-----0----------0-----0----0----0----0-- 
----0-----0-----0-----0-----0----0-----0-----0---0----0---- 
-014---16----17----16----14---12----10-----7---7----7------ 
 
Well there u go, thats the intro, and if u r finding 
it too annoying to play it with the open 2nd and 3rd 
string just play wateva it says it is on the 1st string 
3 times example: 
if its like this:           And its annoyin play this: 
-----------------------     ------------------------ 
-----------------------     ------------------------ 
-----------------------     ------------------------   
-----0----0----0-------     ------------------------ 
---0----0----0---------     ------------------------ 
-3----2----0-----------     -3-3-3---2-2-2---0-0-0-- 
its mainly the same but only the one with the open 
notes is the right version. 

Compartilhe esta música: novo

QR Code
Copiar