Intro 
F|---------------------------------- 
C|-3-2-0-000-5-3-2-222-2-3-5-7-8-5-3-2-0-000- 
G|---------------------------------- 
C|---------------------------------- 
 
F|----------------------------------------------- 
C|-12-10-7-777-14-12-7-777-12-14-15-17-15-14-12-10-12-- 
G|----------------------------------------------- 
C|----------------------------------------------- 
 
Verse 1 
F|-------------------------------------- 
C|-------------------------------------- 
G|-------------------------------------- 
C|-8-8-8-8-8-8-8-8-8-8-8-8-8-8-8-8-8-8-- 
 
F|----------------------------------------------- Verse 1 x 4 on the 4th one miss out 
C|----------------------------------------------- The 2nd bit 
G|---------10b---------8b---------7b---------5b-- 
C|-0-0-0-0-----0-0-0-0----0-0-0-0----0-0-0-0----- 
 
Chorus 1 
F|---------------------------------- 
C|-3-2-0-000-5-3-2-222-2-3-5-7-8-5-3-2-0-000- 
G|----------------------------------            x2 
C|---------------------------------- 
 
Verse 2 
F|-------------------------------------- 
C|-------------------------------------- 
G|-------------------------------------- 
C|-8-8-8-8-8-8-8-8-8-8-8-8-8-8-8-8-8-8-- 
                                                  x3 
F|-----------------------------------------------  
C|----------------------------------------------- 
G|---------10b---------8b---------7b---------5b-- 
C|-0-0-0-0-----0-0-0-0----0-0-0-0----0-0-0-0----- 
 
Verse 2 Fill: 
F|------------------------------------------------------------------------ 
C|------------------------------------------------------------------------ 
G|------------------------------------------------------------------------ 
C|-8-8-8-8-8-8-8-8-8-8-8-8-8-8-8-8-8-8---7-7-7-7-7-7-7-7-7-7-7-7-7-7-7-7-- 
 
Breakdown 
F|-------------------------------------- 
C|-------------------------------------- 
G|--------------------------------------             x3 
C|-3-2-0-000-5-3-2-222-2-3-5-7-8-5-3-2-0--8-- 
 
Outro 
F|---------------------------------- 
C|-3-2-0-000-5-3-2-222-2-3-5-7-8-5-3-2-0-000- 
G|----------------------------------          x2 
C|---------------------------------- 
 
F|----------------------------------------------- 
C|-12-10-7-777-14-12-7-777-12-14-15-17-15-14-12-10-12-- 
G|-----------------------------------------------         x2 let last note ring 
C|----------------------------------------------- 
 
 

Compartilhe esta música: novo

QR Code
Copiar