Intro: (1x)
D|----0---0---0---0---0---0---0-----------------|
A|--0---3---2---4---0---3---2---6~~-------------|
F|----------------------------------------------|
C|----------------------------------------------|
G|----------------------------------------------|
C|----------------------------------------------|

Chorus: (2x)
(very hard to hear)
D|----------------------------------|
A|----------------------------------|
F|----------------------------------|
C|----------------------------------|
G|--3-0-0-0-3-0-0-0-2-0-0-0-4-0-0-0-|
C|--3-0-0-0-3-0-0-0-2-0-0-0-4-0-0-0-|
  |_______________PM_______________|
	
D|----------------------------------|
A|----------------------------------|
F|----------------------------------|
C|----------------------------------|
G|--3-0-0-0-3-0-0-0-2-0-0-0-6-0-0-0-|
C|--3-0-0-0-3-0-0-0-2-0-0-0-6-0-0-0-|
  |_______________PM_______________|


Verse 1 (2x)
D|-0-0-0-0-0-0-0-0-0-0-0-0-0-0-0-0--------------|
A|-0-0-3-3-2-2-4-4-0-0-3-3-2-2-6-6--------------|
F|----------------------------------------------|
C|----------------------------------------------|
G|----------------------------------------------|
C|----------------------------------------------|

Chorus: (2x)
D|----------------------------------|
A|----------------------------------|
F|----------------------------------|
C|----------------------------------|
G|--3-0-0-0-3-0-0-0-2-0-0-0-4-0-0-0-|
C|--3-0-0-0-3-0-0-0-2-0-0-0-4-0-0-0-|
  |_______________PM_______________|
	
D|----------------------------------|
A|----------------------------------|
F|----------------------------------|
C|----------------------------------|
G|--3-0-0-0-3-0-0-0-2-0-0-0-6-0-0-0-|
C|--3-0-0-0-3-0-0-0-2-0-0-0-6-0-0-0-|
  |_______________PM_______________|

Verse 2 (1x)
D|-0-0-0-0-0-0-0-0-|
A|-0-0-3-3-2-2-4-4-|
F|-----------------|
C|-----------------|
G|-----------------|
C|-----------------|

D|----------------------------------|
A|----------------------------------|
F|----------------------------------|
C|----------------------------------|
G|--3-0-0-0-3-0-0-0-2-0-0-0-4-0-0-0-|
C|--3-0-0-0-3-0-0-0-2-0-0-0-4-0-0-0-|
  |_______________PM_______________|

D|-0-0-0-0-0-0-0-0-|
A|-0-0-3-3-2-2-6-6-|
F|-----------------|
C|-----------------|
G|-----------------|
C|-----------------|

D|----------------------------------|
A|----------------------------------|
F|----------------------------------|
C|----------------------------------|
G|--3-0-0-0-3-0-0-0-2-0-0-0-6-0-0-0-|
C|--3-0-0-0-3-0-0-0-2-0-0-0-6-0-0-0-|
  |_______________PM_______________|

Compartilhe esta música: novo

QR Code
Copiar