Istantanee

Subsonica

Intro (0:02) 
 G:|----------------|----------------|----------------|----------------|| 
 D:|----------------|------------7-9-|----------------|----------------|| 
 A:|----------------|----7---7-------|----------------|----7---7---7-6-||  x2 
 E:|7-9-9---7-9-----|7-9---9---9-----|7-9-9---7-9-----|7-9---9---9-----|| 
 B:|-----10----10-\-|----------------|-----10----10-\-|----------------|| 

Pre-Verse (0:08) 
 G:|----------------|| 
 D:|----------------|| 
 A:|----------------||   x4 
 E:|7-9-9---7-9-----|| 
 B:|-----10----10-\-|| 

Verse (0:14) 
 G:|----------------|----------------|----------------|----------------|| 
 D:|----------------|------------7-9-|----------------|----------------|| 
 A:|----------------|----7---7-------|----------------|----7---7---7-6-||  x2 
 E:|7-9-9---7-9-----|7-9---9---9-----|7-9-9---7-9-----|7-9---9---9-----|| 
 B:|-----10----10-\-|----------------|-----10----10-\-|----------------|| 

Rest for 6 seconds, then: 

Chorus (0:39) 
 G:|----------------|----------------|----------------|----------------|| 
 D:|----------------|------------7-9-|----------------|----------------|| 
 A:|----------------|----7---7-------|----------------|----7---7---7-6-||  x4 
 E:|7-9-9---7-9-----|7-9---9---9-----|7-9-9---7-9-----|7-9---9---9-----|| 
 B:|-----10----10-\-|----------------|-----10----10-\-|----------------|| 

Pre-Verse (1:03) 
 G:|----------------|| 
 D:|----------------|| 
 A:|----------------||   x4 
 E:|7-9-9---7-9-----|| 
 B:|-----10----10-\-|| 

Rest for 4 seconds, then: 

Verse (1:14) 
 G:|----------------|----------------|----------------|----------------|| 
 D:|----------------|------------7-9-|----------------|----------------|| 
 A:|----------------|----7---7-------|----------------|----7---7---7-6-||  x2 
 E:|7-9-9---7-9-----|7-9---9---9-----|7-9-9---7-9-----|7-9---9---9-----|| 
 B:|-----10----10-\-|----------------|-----10----10-\-|----------------|| 

Chorus (1:32) 
 G:|----------------|----------------|----------------|----------------|| 
 D:|----------------|------------7-9-|----------------|----------------|| 
 A:|----------------|----7---7-------|----------------|----7---7---7-6-||  x4 
 E:|7-9-9---7-9-----|7-9---9---9-----|7-9-9---7-9-----|7-9---9---9-----|| 
 B:|-----10----10-\-|----------------|-----10----10-\-|----------------|| 

Pre-Verse (1:57) 
 G:|----------------|| 
 D:|----------------|| 
 A:|----------------||   x4 
 E:|7-9-9---7-9-----|| 
 B:|-----10----10-\-|| 

Rest for 8 seconds, then: 

Bridge (2:11) 
 G:|----------------|----------------|| 
 D:|----------------|----------------|| 
 A:|------9-------9-|------9-------9-||  x 6 
 E:|9--99---9--99---|9--99---9--99---|| 
 B:|----------------|----------------|| 

Rest for 12 seconds, then: 

Verse (2:42) 
 G:|----------------|----------------|----------------|----------------|| 
 D:|----------------|------------7-9-|----------------|----------------|| 
 A:|----------------|----7---7-------|----------------|----7---7---7-6-||  x2 
 E:|7-9-9---7-9-----|7-9---9---9-----|7-9-9---7-9-----|7-9---9---9-----|| 
 B:|-----10----10-\-|----------------|-----10----10-\-|----------------|| 

Chorus (2:52) to fade 
 G:|----------------|----------------|----------------|----------------|| 
 D:|----------------|------------7-9-|----------------|----------------|| 
 A:|----------------|----7---7-------|----------------|----7---7---7-6-|| 
 E:|7-9-9---7-9-----|7-9---9---9-----|7-9-9---7-9-----|7-9---9---9-----|| 
 B:|-----10----10-\-|----------------|-----10----10-\-|----------------|| 



*************************** 

| \  slide down  

*************************** 

Compartilhe esta música: novo

QR Code
Copiar