Through the glass

Stone Sour

Tuning: D#,G#,C#,F#,A#,D# 
 
 
 
Intro: 
 
e|--------------------------------------------0---| 
B|---0---0------------------------------0--0--0---| 
G|---------------0-----------0----------------0---| 
D|--5---7------9---9-------9---9------5---7---2---| 
A|-3---5-----7-------7---7-------7---3---5----2---| 
E|---------0-----------0----------------------0---| 
 
 
Verse and Chorus: 
 
e|-00000000--00000000-0000000000000000-| 
B|-00000000--00000000-0000000000000000-| 
G|-00000000--00000000-0000000000000000-| 
D|-55555555--77777777-9999999999997777-| 
A|-33333333--55555555-7777777777775555-| 
E|--------------------000000000000-----| 
 
1st Chorus Lead fill: 
 
e|-------------------------------------------| 
B|-12--10-----------12-10-8-7---12--10-------| 
G|---12--11--7--99--12-11-9-7-----12--11--9~-| 
D|-------------------------------------------| 
A|-------------------------------------------| 
E|-------------------------------------------| 
 
From 2nd Chorus on it plays this chord progression: 
 
e|-00000000-22222222-0000000000002222-| 
B|-11111111-33333333-0000000000003333-| 
G|-00000000-22222222-0000000000002222-| 
D|-22222222-00000000-2222222222220000-| 
A|-33333333----------222222222222-----| 
E|-------------------000000000000-----| 
 

Compartilhe esta música: novo

QR Code
Copiar