Tom: E
 
 
intro (after 'What Child Is This': 
  E 
e---0---0---0------- 
b------------------- 
G----8---8---8--8-9-  4x 
D--9---9---9---9---- 
A------------------- 
E-0----------------- 
 
OR 
 
  E 
e---0---0---0------- 
b----4---4---4--4-5- 
G--4---4---4---4----  4x 
D------------------- 
A------------------- 
E-0----------------- 
 
Verse chords: 
 
e--0----0----0----0-- 
b--0----0----0----0-- 
G--2----4----9----6-- 
D--2----4----9----6-- 
A--0----2----7----4-- 
E------------0------- 
   A    B    E    C#m 
 
Verse 1: 
         A     B           E 
    A                   B      E 
   A             B           C#m 
B     A 
               A           B           E 
        A             B             E 
       A           B               C#m 
B         A 
 
Chorus chords: 
 
e--0----0----0----0----0--- 
b--0----0----0----0----0--- 
G--4----1----2----4----6--- 
D--4----2----2----2----6--- 
A--2----2----0----2----4--- 
E-------0---------4-------- 
   B    E    A  E/G#   C#m 
 
 
Chorus: 
B                      E      A 
B                     E       A 
B             E        E/G#      C#m 
A    E        B        C#m   A    E        B      C#m     
A    E        B       C#m  A           
 
Transition (between Chorus and verse 2): 
 
e---0---0---0-------- 
b-------------------- 
G----8---8---8--8-9--  2x 
D--9---9---9---9----- 
A-0------------------ 
E-------------------- 
 
OR 
 
e---0---0---0-------- 
b----4---4---4--4-5-- 
G--4---4---4---4-----  2x 
D-------------------- 
A-0------------------ 
E-------------------- 
 
 
 
 
Bridge chords: 
 
e--0----0----0----0----2----0-- 
b--0----0----2----0----1----0-- 
G--6----2----1----4----1----1-- 
D--6----2----2----4----1----2-- 
A--4----0----1----2----3----2-- 
E---------------------------0-- 
  C#m   A   Bbm   B   Cm    E 
 
 
Bridge: 
    C#m                     A 
         Bbm                        B 
Cm                           C#m                B 
A           E       B         C#m 
A    E       B       C#m 
A        E     B              C#m 
 
 
Chorus: 
(same as Chorus 1) 
 
Outro: 
A         B   E     E/G#    A 
A             E     E/G#    A 
A             E     E/G#    A 
 

Compartilhe esta música: novo

QR Code
Copiar