Carol Of The Bells

Steven Curtis Chapman

Tom: Em
Intro: 
(strum Em chord upward) 
e-0------------------------------------------------------------------------ 
b--0----------------------------------------------------------------------- 
G---0-----0--0--0--0--0--2p0-0------0--0--0--0--0-------0------------------ 
D----2---2-2---4-2---4-2------4p2--2-2---4-2---4-2-0h2h4-4p2--------------- 
A-----2-2---2-----2-----2---2-----2---2-----2-----2------------------------ 
E------0-------------------------0----------------------------------------- 
 
e-------------------------------------------------------------------------- 
b-----------------------------------------------3-------------------------- 
G----0--0--0--0--0--2p0-0------0---0--0-------0-0-------------------------- 
D---2-2---4-2---4-2------4p2--2--2---4-2-0h2h4----------------------------- 
A--2---2-----2-----2---2-----2----2-----2---------------------------------- 
E-0-------------------------0---------------------------------------------- 
 
 
Part 1: 
e-------------------------------------------------------------------------- 
b-------------------------------------------------------------------------- 
G-0--0--0--0--0--0--0--0--0--0--0--0----------0-0-0------------------------ 
D---4-2---4-2---4-2---4-2---4-2---4-2------2h4-4-4-2----------------------- 
A-------5-----3-----2-----3-----2-----0h2h3-------------------------------- 
E-0----------------------------------0------------------------------------- 
 
e-------------------------------------------------------------------------- 
b-------------------------------------------------------------------------- 
G-0--0--0--0--------------0-0--0--0--0--0--0--0--0--0---------------------- 
D---4-2---4-2------0h2h4-4-4-2---4-2---4-2---4-2---4-2--------------------- 
A-3-----2-----0h2h3------------3-----4-----5-----6------------------------- 
E------------0------------------------------------------------------------- 
 
 
Part 2: 
e-0--0-0------------------------------------------------------------------- 
b-0-----3-1-0--0-0----1----1s3s1-0----------------------------------------- 
G-0---------0-----2-0-2--2-2s4s2-0---0------------------------------------- 
D-2---------2---------2----------2--4-2------------------------------------ 
A-2---------2---------0----------2----------------------------------------- 
E-0---------0--------------------0----------------------------------------- 
 
e-0--0-0------------------------------------------------------------------- 
b-0-----3-1-0--0-0----1----1s3s1-0----------------------------------------- 
G-0---------0-----2-0-2--2-2s4s2-0---0------------------------------------- 
D-2---------2---------2----------2--4-2------------------------------------ 
A-2---------2---------0----------2----------------------------------------- 
E-0---------0--------------------0----------------------------------------- 
 
                                         |2nd + 3rd times only 
e----------------------------------------|----|---------------------------- 
b-----------1s3s1--0------------1s3s1--0-|----|---------------------------- 
G---------0-2s4s2--0----------0-2s4s2--0-|--0-|---------------------------- 
D----1-2-4---------------1-2-4-----------|-4--|---------------------------- 
A-2-4-----------------2-4----------------|----|---------------------------- 
E----------------------------------------|----|---------------------------- 
 
                                                       |N.H.-------------| 
e-----------------------------------------------------0--------<7>--------- 
b---------------------------------------------------3s5-----<7>----<5>----- 
G-0--0--0--0--0--0--0--0--0--0--0--0--0--0---------0-----<7>-------<5>----- 
D---4-2---4-2---4-2---4-2---4-2---4-2---4-2---0h2h4------------------------ 
A-------5-----3-----2-----3-----2-----0------2----------------------------- 
E-0---------------------------------------------------0-------------------- 
 
 |1st time only|  |N.H.----------| 
e|---------0---|---------<7>---------------------------------------------------- 
b|-------3s5---|------<7>----<5>------------------------------------------------ 
G|------0------|---<7>-------<5>------------------------------------------------ 
D|-0h2h4-------|----------------------------------------------------------- 
A|2------------|----------------------------------------------------------- 
E|---------0---|----------------------------------------------------------- 
 
 
Part 3: 
e-------12------10------8-----7-----8-----7-----5-----3-------------------- 
b-------------------------------------------------------------------------- 
G--11s12----9s11----11s9---9s7---7s9---9s7---4s5---5s4--------------------- 
D-------------------------------------------------------------------------- 
A-------------------------------------------------------------------------- 
E-------------------------------------------------------------------------- 
 
e----0-----2-----3-----3------7-----7-----7-----7-------------------------- 
b-------------------------------------------------------------------------- 
G-------0s2---2s4---4s5----4s5---5s6---6s7---7s8--------------------------- 
D-4s5---------------------------------------------------------------------- 
A-------------------------------------------------------------------------- 
E-------------------------------------------------------------------------- 
 
 
Fill: 
e----7h8p7-------7-10-12--------------------------------------------------- 
b---------10-8-10---------------------------------------------------------- 
G-------------------------------------------------------------------------- 
D-------------------------------------------------------------------------- 
A-------------------------------------------------------------------------- 
E-------------------------------------------------------------------------- 
 
 
End:          |N.H.--------|     |N.H.---------| 
e----------0--------<7>-----------------<7>-------------------------------- 
b--------3s5-----<7>----<5>----------<7>----<5>---------------------------- 
G-------0-----<7>-------<5>-------<7>-------<5>---------------------------- 
D--0h2h4------------------------------------------------------------------- 
A-2------------------------------------------------------------------------ 
E----------0-------------------0------------------------------------------- 
 
e----------0--------------------------------------------------------------- 
b--------3-0--------------------------------------------------------------- 
G-------0--0--------------------------------------------------------------- 
D--0h2h4---2--------------------------------------------------------------- 
A-2--------2--------------------------------------------------------------- 
E----------0--------------------------------------------------------------- 
 
Order: 
Intro 
Part 1 
Part 2 
Part 1 
Part 2 
Part 3 
Part 2 
Part 1 
(the fill is played just before this on another guitar)Part 2 
End 
********* 
You found it at E-Chords 
Submitted By: David Campbell 
Ontario Canada  
 

Compartilhe esta música: novo

QR Code
Copiar