Stahlmann

Stahlmann

Tom: C
Drop C 

Riff principal 

D|--------------------------------| 
A|--------------------------------| 
F|--------------------------------| 
C|10--10--10--101310------7--7--7-| 
G|10--10--10--101310------5--5--5-| 
C|100010001000101310000000-00-00-0| 
    ..  ..  ..      ...... .. .. . 
    PM  PM  PM      PM     PM PM PM 


Outro 

D|-------------------------| 
A|-------------------------| 
F|-------------------------| 
C|53------53------53------5| 
G|53------53------53------5| 
C|5300000053000000530000005| 
    ......  ......  ...... 
    PM      PM      PM 

Compartilhe esta música: novo

QR Code
Copiar