Marschieren

Stahlmann

Tom: C
 

Intro 

D|-------------------------|-------------------------| 
A|-------------------------|-------------------------| 
F|-------------------------|-------------------------| 
C|-------------------------|------------------------9| 
G|0-0--0-0--0-0--0-0--0-0-0|0-0--0-0--0-0--0-0--0-0-7| 
C|0-0--0-0--0-0--0-0--0-0-0|0-0--0-0--0-0--0-0--0-0--| 

Refrain 

D|------------------------------|------------------------| 
A|------------------------------|------------------------| 
F|------------------------------|------------------------| 
C|0-----3-----8-----5-----7-----|0-----3-----8-----7-----| 
G|0(x8)-3(x8)-8(x8)-5(x6)-7(x2)-|0(x8)-3(x8)-8(x8)-7(x8)-| 
C|0-----3-----8-----5-----7-----|0-----3-----8-----7-----| 

Outro 

D|-----------------------------|-----------------------| 
A|-----------------------------|-----------------------| 
F|-----------------------------|-----------------------| 
C|-----------------------------|-----------------------| 
G|-----------------------------|-----------------------| 
C|0-0-0--0-0-0-0--7-7--5-5--3-3|3-3-3--3-3-3-3--7-5-3-5| 

Compartilhe esta música: novo

QR Code
Copiar