Hass Mich Liebe Mich

Stahlmann

 

Intro/Chorus (x2)  

(x3) 
D---------------| 
A---------------| 
F---------------| 
C--3-3--333-33--| 
G--3-3--333-33--| 
C--1-1--111-11--| 
PM      ... ..    
(x1) 
D---------------| 
A---------------| 
F---------------| 
C—4h666-6h444-1-| 
G—4h666-6h444-1-| 
C—4h666-6h444-1-| 
PM   ..    .. 
Verse (x4) 

D--------------| 
A--------------| 
F--------------| 
C—-------------|(with the rhythim all palm mute) 
G—-------------| 
C—1..-6..-4..--| 
PM.   .   .  
Intro/Chorus (x2) 

(x3) 
D---------------| 
A---------------| 
F---------------| 
C--3-3--333-33--| 
G--3-3--333-33--| 
C--1-1--111-11--| 
PM      ... ..    
(x1) 
D---------------| 
A---------------| 
F---------------| 
C—4h666-6h444-1-| 
G—4h666-6h444-1-| 
C—4h666-6h444-1-| 
PM   ..    .. 
Verse (x4) 

D--------------| 
A--------------| 
F--------------| 
C—-------------|(with the rhythim all palm mute) 
G—-------------| 
C—1..-6..-4..--| 
PM.   .   .  
Intro/Chorus (x2) 

(x3) 
D---------------| 
A---------------| 
F---------------| 
C--3-3--333-33--| 
G--3-3--333-33--| 
C--1-1--111-11--| 
PM      ... ..    
(x1) 
D---------------| 
A---------------| 
F---------------| 
C—4h666-6h444-1-| 
G—4h666-6h444-1-| 
C—4h666-6h444-1-| 
PM   ..    .. 
Interlude  

D------------------------| 
A------------------------| 
F------------------------| 
C—3----8----6------------| 
G—3----8----6------------| 
C—1----6----4---1..6..4.. 
PM              .  .  . 

D---------------------------------------------------------------| 
A---------------------------------------------------------------| 
F---------------------------------------------------------------| 
C—--------------------------------------------------------------| 
G—--------------------------------------------------------------| 
C-4-3-1-3-4-1--4-3-1-4-3-1—-5-4-3--4-3-1-3-4-1--4-3-1-4-3-1—-7-7| 

D------------------------------------------------------------| 
A------------------------------------------------------------| 
F------------------------------------------------------------| 
C—-----------------------------------------------------------| 
G—-----------------------------------------------------------| 
C-4-3-1-3-4-1--4-3-1-4-3-1—-5-4-3--4-3-1-3-4-1--4-3-1-4-3—-7-| 


Intro/Chorus (x4) 

(x3) 
D---------------| 
A---------------| 
F---------------| 
C--3-3--333-33--| 
G--3-3--333-33--| 
C--1-1--111-11--| 
PM      ... ..    
(x1) 
D---------------| 
A---------------| 
F---------------| 
C—4h666-6h444-1-| 
G—4h666-6h444-1-| 
C—4h666-6h444-1-| 
PM   ..    .. 

Compartilhe esta música: novo

QR Code
Copiar