Nakapagtataka

Spongecola

Tom: G
Solo: 

Guitar 2 
e|--------------|----------------|-8s10-10-8-8-7-|---------------------| 
B|------8-10-10-|-10s12-12-10-10-|---------------|-10-8-8s10-7-8-7-----| 
G|-9-11---------|----------------|---------------|---------------------| 
D|--------------|----------------|---------------|---------------------| 
A|--------------|----------------|---------------|---------------------| 
E|--------------|----------------|---------------|---------------------| 

e|------------|---------10-10-|-------15-17-15-17s19-|-19-19-19-19-17-15-17s19~| 
B|----------8-|-10-10s12------|-15-17----------------|-------------------------| 
G|---7-9-11---|---------------|----------------------|-------------------------| 
D|-9----------|---------------|----------------------|-------------------------| 
A|------------|---------------|----------------------|-------------------------| 
E|------------|---------------|----------------------|-------------------------| 

Chorus: 

Guitar 2 
e|-19~-19-17-15-15h17-|-14-15-14-----------|-19-19-19-19-19-17-15-14-15~| 
B|--------------------|----------15-15s17--|----------------------------| 
G|--------------------|--------------------|----------------------------| 
D|--------------------|--------------------|----------------------------| 
A|--------------------|--------------------|----------------------------| 
E|--------------------|--------------------|----------------------------| 

Coda: 

Guitar 2 (outro) 
e|--------------10-| 
B|------8-10-12----| 
G|-9-11------------| 
D|-----------------| 
A|-----------------| 
E|-----------------| 
 

Compartilhe esta música: novo

QR Code
Copiar