Shine On

Soil

Tom: A#
Tuning: Drop A# (A#,F,A#,D#,G,C) 

Riff 1 (light distortion)   'Shine on me...' 
 C|--------------------------------------------------------------------| 
 G|--------------------------------------------------------------------| 
D#|--------------------------------------------------------------------| 
A#|-5---5---7---7---5---5---7---7---5---5---7---7---10---10---10---6---| 
 F|---0---0---0---0---0---0---0---0---0---0---0---0----0----0----0---0-| 
A#|--------------------------------------------------------------------| 

 C|---------------------------------------------------------------------| 
 G|---------------------------------------------------------------------| 
D#|---------------------------------------------------------------------| 
A#|-5---5---7---7---5---5---7---7---5---5---7---7---10---10---12---12---| 
 F|---0---0---0---0---0---0---0---0---0---0---0---0----0----0----0----0-| 
A#|---------------------------------------------------------------------| 
                                                                   ^ 
                                                ends here second time through 

Riff 1 notes: Faint slide up/down to each note. 

Play Riff 1 x2   'With more than...' 

Riff 2 (full distortion)   'Make me see why...' 
 C|--------------------------| 
 G|--------------------------| 
D#|--------------------------| 
A#|--------------------------|   x3 
 F|--------------------------| 
A#|-7-5-7--7-5-7--7--5-7-5-7-| 

1st ending: 
 C|------------------------| 
 G|------------------------| 
D#|------------------------| 
A#|--------------------0-0-| 
 F|--------------------0-0-| 
A#|-7-5-7--7-5-7--7--7-0-0-| 

Play top half of Riff 2 x3, then second ending: 
 C|--------------------------------------| 
 G|--------------------------------------| 
D#|--------------------------------------| 
A#|---------------7/10-10-10-10-10-10-10-| 
 F|---------------7/10-10-10-10-10-10-10-| 
A#|-7-5-7--7-5-7--7/10-10-10-10-10-10-10-| 

Riff 3   'I feel what you feel...' 
 C|--------------------------------------------------------------| 
 G|--------------------------------------------------------------| 
D#|--------------------------------------------------------------| 
A#|-7----5----10---3--5--7----5----10----10h12-12-12-10h12-12-12-| 
 F|-7----5----10---3--5--7----5----10----10h12-12-12-10h12-12-12-| 
A#|-7----5----10---3--5--7----5----10----10h12-12-12-10h12-12-12-| 

Riff 3 notes: Just the chords, the strumming pattern is fairly 
              straightforward. 

Play Riff 3 x1 

Fill 1 
 C|--------------------------| 
 G|--------------------------| 
D#|--------------------------| 
A#|--------------------------| 
 F|--------------------------| 
A#|-7-5-7--7-5-7--7--5-7-5-7-| 

Play Riff 2 x1   'This will not fade away...' 
Play Riff 3 x2   'I feel what you feel...' 

Riff 4   'We will not go away...' 
 C|----------------------------------------| 
 G|----------------------------------------| 
D#|----------------------------------------| 
A#|-7----5----0----3----7----5----10----12-| 
 F|-7----5----0----3----7----5----10----12-| 
A#|-7----5----0----3----7----5----10----12-| 

Riff 4 notes: Again, just the chords, listen to song for strumming pattern. 

Play Riff 4 x1 

Fill 2 (light distortion) 
 C|--------------------------------------------------------------------| 
 G|--------------------------------------------------------------------| 
D#|--------------------------------------------------------------------| 
A#|-5---5---7---7---5---5---7---7---5---5---7---7---10---10---10---6---| 
 F|---0---0---0---0---0---0---0---0---0---0---0---0----0----0----0---0-| 
A#|--------------------------------------------------------------------| 

Play Riff 1 x1   'Shine on me...' 
Play Riff 3 x2   'I feel what you feel...' 
Play Riff 4 x1   'We will not go away...' 
Play Riff 2 x1   'Shine on!!' 

Enjoy!! 

Compartilhe esta música: novo

QR Code
Copiar