De Musica Ligera

Soda Stereo

Tom: Bm
------------------------------------------- 
------------------------------------------- 
------------------------------------------- 
-------------------------------2-4-2-0----- 
-2-2-3-4--3-4-3-2---2--2-2-3-4---------4-2- 
------------------2------------------------ 
 
 
SOLO: 
 
 
---7---5---7---5---7-5-2-0-2-0-2-4-6-8-10-8-6-4 
-0---0---0---0---0--------------- 
--------------------------------- 
--------------------------------- 
--------------------------------- 
--------------------------------- 
 
-12-10-9-10-12-10-9-10-12-10-9-10-12-10-9-7-5-3- 
------------------------------------------------ 
------------------------------------------------ 
------------------------------------------------ 
------------------------------------------------ 
------------------------------------------------ 
 
-5-2-0-2--5-2-0-2--14-12-14-12-14-15-14-12--12-14-15-14-12-10 
-0--------0-------- 
------------------- 
------------------- 
------------------- 
------------------- 
 
-12-10-9-10-12-10-9-7-5-2-0-2--5-2-0-2- 
----------------------0--------0------- 
--------------------------------------- 
--------------------------------------- 
--------------------------------------- 
--------------------------------------- 

Compartilhe esta música: novo

QR Code
Copiar