When The Sun Hits

Slowdive

0:00 

1st guitar 

E|----------------------------------14-14-14-------------------------------------------14-14-14---------------- 
B|-------------------------14-14-14----------14\------------------------------14-14-14----------14-14---------- 
G|-11-11-11-11-11-11-11-11----------------------------11-11-11-11-11-11-11-11---------------------------------- 
D|------------------------------------------------------------------------------------------------------------- 
A|------------------------------------------------------------------------------------------------------------- 
E|------------------------------------------------------------------------------------------------------------- 

E|-----------14---------------------14------------------------------------------------------------------------- 
B|--------14-----14----14--------14-----14----14--------------------------------------------------------------- 
G|-----14-----------14--------14-----------14------------------------------------------------------------------ 
D|------------------------------------------------------------------------------------------------------------- 
A|------------------------------------------------------------------------------------------------------------- 
E|------------------------------------------------------------------------------------------------------------- 

2nd guitar 

E|------------------------------------------------------------------------------------------------------------- 
B|----------------------12-------------------------------------------------12---------------------------------- 
G|-11-14-11----13-11-------11-------14----13----------11-14-11----13-11-------11-------14----13---------------- 
D|------------------------------------------------------------------------------------------------------------- 
A|------------------------------------------------------------------------------------------------------------- 
E|------------------------------------------------------------------------------------------------------------- 

E|-x----------------------x------------------------------------------------------------------------------------ 
B|-x----------------------0------------------------------------------------------------------------------------ 
G|-6----------------------4------------------------------------------------------------------------------------ 
D|-7----------------------5------------------------------------------------------------------------------------ 
A|-7----------------------5------------------------------------------------------------------------------------ 
E|-5----------------------3------------------------------------------------------------------------------------ 

3rd guitar 

E|------------------------------------------------------------------------------------------------------------- 
B|------------------------------------------------------------------------------------------------------------- 
G|------------------------------------------------------------------------------------------------------------- 
D|-11-11-11-11-11-11-11-0-----------------11-11-11-11-11-11-11-0----------------------------------------------- 
A|-12-12-12-12-12-12-12-0-4-4-4-4-4-4-4-4-12-12-12-12-12-12-12-0-4-4-4-4-4-4-4-4------------------------------- 
E|-10-10-10-10-10-10-10-0-2-2-2-2-2-2-2-2-10-10-10-10-10-10-10-0-2-2-2-2-2-2-2-2------------------------------- 
PM:............................................................................. 

E|------------------------------------------------------------------------------------------------------------- 
B|------------------------------------------------------------------------------------------------------------- 
G|------------------------------------------------------------------------------------------------------------- 
D|------------------------------------------------------------------------------------------------------------- 
A|-5-5-5-5-5-5-5-5-7-7-7-7-7-7-7-7----------------------------------------------------------------------------- 
E|-5-5-5-5-5-5-5-5-7-7-7-7-7-7-7-7----------------------------------------------------------------------------- 
PM:............................... 



~0:15 

1st guitar 

E|----------------------------------14-14----14----------------------------------------14-------14------------- 
B|-------------------------14-14-14-------14----------------------------------14-14-14-------14----14---------- 
G|-11-11-11-11-11-11-11-11----------------------------11-11-11-11-11-11-11-11---------------------------------- 
D|------------------------------------------------------------------------------------------------------------- 
A|------------------------------------------------------------------------------------------------------------- 
E|------------------------------------------------------------------------------------------------------------- 

E|-----------14---------------------14------------------------------------------------------------------------- 
B|--------14-----14----14--------14-----14----14--------------------------------------------------------------- 
G|-----14-----------14--------14-----------14------------------------------------------------------------------ 
D|------------------------------------------------------------------------------------------------------------- 
A|------------------------------------------------------------------------------------------------------------- 
E|------------------------------------------------------------------------------------------------------------- 

2nd guitar 

E|------------------------------------------------------------------------------------------------------------- 
B|----------------------12-------------------------------------------------12---------------------------------- 
G|-11-14-11----13-11-------11-------14----13----------11-14-11----13-11-------11-------14----13---------------- 
D|------------------------------------------------------------------------------------------------------------- 
A|------------------------------------------------------------------------------------------------------------- 
E|------------------------------------------------------------------------------------------------------------- 

E|-x----------------------x------------------------------------------------------------------------------------ 
B|-x----------------------0------------------------------------------------------------------------------------ 
G|-6----------------------4------------------------------------------------------------------------------------ 
D|-7----------------------5------------------------------------------------------------------------------------ 
A|-7----------------------5------------------------------------------------------------------------------------ 
E|-5----------------------3------------------------------------------------------------------------------------ 

3rd guitar 

E|------------------------------------------------------------------------------------------------------------- 
B|------------------------------------------------------------------------------------------------------------- 
G|------------------------------------------------------------------------------------------------------------- 
D|-11-11-11-11-11-11-11-0-----------------11-11-11-11-11-11-11-0----------------------------------------------- 
A|-12-12-12-12-12-12-12-0-4-4-4-4-4-4-4-4-12-12-12-12-12-12-12-0-4-4-4-4-4-4-4-4------------------------------- 
E|-10-10-10-10-10-10-10-0-2-2-2-2-2-2-2-2-10-10-10-10-10-10-10-0-2-2-2-2-2-2-2-2------------------------------- 
PM:............................................................................. 

E|------------------------------------------------------------------------------------------------------------- 
B|------------------------------------------------------------------------------------------------------------- 
G|------------------------------------------------------------------------------------------------------------- 
D|------------------------------------------------------------------------------------------------------------- 
A|-5-5-5-5-5-5-5-5-7-7-7-7-7-7-7-7----------------------------------------------------------------------------- 
E|-5-5-5-5-5-5-5-5-7-7-7-7-7-7-7-7----------------------------------------------------------------------------- 
PM:............................... 



~0:30 

1st guitar 
                                                                                 
E|----------------------------------14-------------------------------------------------14-14------------------- 
B|-------------------------14-14-14---------14--------------------------------14-14-14-------14---------------- 
G|-11-11-11-11-11-11-11-11----------------------------11-11-11-11-11-11-11-11-------------------14------------- 
D|------------------------------------------------------------------------------------------------------------- 
A|------------------------------------------------------------------------------------------------------------- 
E|------------------------------------------------------------------------------------------------------------- 
                                                                                AH:       ..    .. 

E|-----------14---------------------14------------------------------------------------------------------------- 
B|--------14-----14----14--------14-----14----14--------------------------------------------------------------- 
G|-----14-----------14--------14-----------14------------------------------------------------------------------ 
D|------------------------------------------------------------------------------------------------------------- 
A|------------------------------------------------------------------------------------------------------------- 
E|------------------------------------------------------------------------------------------------------------- 
                PM:                    .....     
            
2nd guitar 

E|------------------------------------------------------------------------------------------------------------- 
B|----------------------12-------------------------------------------------12---------------------------------- 
G|-11-14-11----13-11-------11-------14----13----------11-14-11----13-11-------11-------14----13---------------- 
D|------------------------------------------------------------------------------------------------------------- 
A|------------------------------------------------------------------------------------------------------------- 
E|------------------------------------------------------------------------------------------------------------- 

E|-x----------------------x------------------------------------------------------------------------------------ 
B|-x----------------------0------------------------------------------------------------------------------------ 
G|-6----------------------4------------------------------------------------------------------------------------ 
D|-7----------------------5------------------------------------------------------------------------------------ 
A|-7----------------------5------------------------------------------------------------------------------------ 
E|-5----------------------3------------------------------------------------------------------------------------ 

3rd guitar 

E|------------------------------------------------------------------------------------------------------------- 
B|------------------------------------------------------------------------------------------------------------- 
G|------------------------------------------------------------------------------------------------------------- 
D|-11-11-11-11-11-11-11-0-----------------11-11-11-11-11-11-11-0----------------------------------------------- 
A|-12-12-12-12-12-12-12-0-4-4-4-4-4-4-4-4-12-12-12-12-12-12-12-0-4-4-4-4-4-4-4-4------------------------------- 
E|-10-10-10-10-10-10-10-0-2-2-2-2-2-2-2-2-10-10-10-10-10-10-10-0-2-2-2-2-2-2-2-2------------------------------- 
PM:............................................................................. 

E|------------------------------------------------------------------------------------------------------------- 
B|------------------------------------------------------------------------------------------------------------- 
G|------------------------------------------------------------------------------------------------------------- 
D|------------------------------------------------------------------------------------------------------------- 
A|-5-5-5-5-5-5-5-5-7-7-7-7-7-7-7-7----------------------------------------------------------------------------- 
E|-5-5-5-5-5-5-5-5-7-7-7-7-7-7-7-7----------------------------------------------------------------------------- 
PM:............................... 



~0:46 

1st guitar 

E|----------------------------------14-------------------------------------------------14-------14------------- 
B|-------------------------14-14-14-------------------------------------------14-14-14-------14----14---------- 
G|-11-11-11-11-11-11-11-11----------------------------11-11-11-11-11-11-11-11---------------------------------- 
D|------------------------------------------------------------------------------------------------------------- 
A|------------------------------------------------------------------------------------------------------------- 
E|------------------------------------------------------------------------------------------------------------- 
                2nd guitar fills:       ...... 

E|-----------14-----------------------14----------------------------------------------------------------------- 
B|--------14-----14----------------14-------------------------------------------------------------------------- 
G|-----14-----------14-------14-14----------------------------------------------------------------------------- 
D|------------------------------------------------------------------------------------------------------------- 
A|------------------------------------------------------------------------------------------------------------- 
E|------------------------------------------------------------------------------------------------------------- 

2nd guitar 

E|------------------------------------------------------------------------------------------------------------- 
B|----------------------12-------------------------------------------------12---------------------------------- 
G|-11-14-11----13-11-------11-------14----13----------11-14-11----13-11-------11-------14----13---------------- 
D|------------------------------------------------------------------------------------------------------------- 
A|------------------------------------------------------------------------------------------------------------- 
E|------------------------------------------------------------------------------------------------------------- 

E|-x----------------------x------------------------------------------------------------------------------------ 
B|-x----------------------0------------------------------------------------------------------------------------ 
G|-6----------------------4------------------------------------------------------------------------------------ 
D|-7----------------------5------------------------------------------------------------------------------------ 
A|-7----------------------5------------------------------------------------------------------------------------ 
E|-5----------------------3------------------------------------------------------------------------------------ 
3rd guitar 

E|------------------------------------------------------------------------------------------------------------- 
B|------------------------------------------------------------------------------------------------------------- 
G|------------------------------------------------------------------------------------------------------------- 
D|-11-11-11-11-11-11-11-0-----------------11-11-11-11-11-11-11-0----------------------------------------------- 
A|-12-12-12-12-12-12-12-0-4-4-4-4-4-4-4-4-12-12-12-12-12-12-12-0-4-4-4-4-4-4-4-4------------------------------- 
E|-10-10-10-10-10-10-10-0-2-2-2-2-2-2-2-2-10-10-10-10-10-10-10-0-2-2-2-2-2-2-2-2------------------------------- 
PM:............................................................................. 

E|------------------------------------------------------------------------------------------------------------- 
B|------------------------------------------------------------------------------------------------------------- 
G|------------------------------------------------------------------------------------------------------------- 
D|------------------------------------------------------------------------------------------------------------- 
A|-5-5-5-5-5-5-5-5-7-7-7-7-7-7-7-7----------------------------------------------------------------------------- 
E|-5-5-5-5-5-5-5-5-7-7-7-7-7-7-7-7----------------------------------------------------------------------------- 
PM:............................... 






first Chorus 



~1:02 

1st guitar 

E|------------------------------------------------------------------------------------------------------------- 
B|-10(10)--------------------------/12(12)----------/7(7)------------------------------------------------------ 
G|------------------------------------------------------------------------------------------------------------- 
D|------------------------------------------------------------------------------------------------------------- 
A|------------------------------------------------------------------------------------------------------------- 
E|------------------------------------------------------------------------------------------------------------- 

E|------------------------------------------------------------------------------------------------------------- 
B|-10(10)--------------------------/12(12)----------/7(7)------------------------------------------------------ 
G|------------------------------------------------------------------------------------------------------------- 
D|------------------------------------------------------------------------------------------------------------- 
A|------------------------------------------------------------------------------------------------------------- 
E|------------------------------------------------------------------------------------------------------------- 

2nd guitar 

E|------------------------------------------------------------------------------------------------------------- 
B|----------------------12------------------------------------------------------------------------------------- 
G|-11-14-11----13-11-------11-------14----13------------------------------------------------------------------- 
D|--------------------------------------------------11-14-11----13-11----9--11--11--13------------------------- 
A|------------------------------------------------------------------------------------------------------------- 
E|------------------------------------------------------------------------------------------------------------- 

E|------------------------------------------------------------------------------------------------------------- 
B|----------------------12------------------------------------------------------------------------------------- 
G|-11-14-11----13-11-------11-------14----13------------------------------------------------------------------- 
D|--------------------------------------------------11-14-11----13-11----9--11--11--13------------------------- 
A|------------------------------------------------------------------------------------------------------------- 
E|------------------------------------------------------------------------------------------------------------- 

3rd guitar 

E|------------------------------------------------------------------------------------------------------------- 
B|------------------------------------------------------------------------------------------------------------- 
G|------------------------------------------------------------------------------------------------------------- 
D|------------------------------------------------------------------------------------------------------------- 
A|-12-12-12-12-12-12-12-12-12-12-12-14-14-14-14-14-4-4-4-4-4-4-4-4-5-5-5-5-7-7-7-7----------------------------- 
E|-10-10-10-10-10-10-10-10-10-10-10-12-12-12-12-12-2-2-2-2-2-2-2-2-3-3-3-3-5-5-5-5----------------------------- 

E|------------------------------------------------------------------------------------------------------------- 
B|------------------------------------------------------------------------------------------------------------- 
G|------------------------------------------------------------------------------------------------------------- 
D|------------------------------------------------------------------------------------------------------------- 
A|-12-12-12-12-12-12-12-12-12-12-12-14-14-14-14-14-4-4-4-4-4-4-4-4-5-5-5-5-7-7-7-7----------------------------- 
E|-10-10-10-10-10-10-10-10-10-10-10-12-12-12-12-12-2-2-2-2-2-2-2-2-3-3-3-3-5-5-5-5----------------------------- 



~1:22 

1st guitar 

E|------------------------------------------------------------------------------------------------------------- 
B|-10(10)--------------------------/12(12)----------/7(7)------------------------------------------------------ 
G|------------------------------------------------------------------------------------------------------------- 
D|------------------------------------------------------------------------------------------------------------- 
A|------------------------------------------------------------------------------------------------------------- 
E|------------------------------------------------------------------------------------------------------------- 

E|------------------------------------------------------------------------------------------------------------- 
B|-10(10)--------------------------/12(12)----------/7(7)------------------------------------------------------ 
G|------------------------------------------------------------------------------------------------------------- 
D|------------------------------------------------------------------------------------------------------------- 
A|------------------------------------------------------------------------------------------------------------- 
E|------------------------------------------------------------------------------------------------------------- 

2nd guitar 

E|------------------------------------------------------------------------------------------------------------- 
B|----------------------12------------------------------------------------------------------------------------- 
G|-11-14-11----13-11-------11-------14----13------------------------------------------------------------------- 
D|--------------------------------------------------11-14-11----13-11----9--11--11--13------------------------- 
A|------------------------------------------------------------------------------------------------------------- 
E|------------------------------------------------------------------------------------------------------------- 

E|------------------------------------------------------------------------------------------------------------- 
B|----------------------12------------------------------------------------------------------------------------- 
G|-11-14-11----13-11-------11-------14----13------------------------------------------------------------------- 
D|--------------------------------------------------11-14-11----13-11----9--11--11--13------------------------- 
A|------------------------------------------------------------------------------------------------------------- 
E|------------------------------------------------------------------------------------------------------------- 

3rd guitar 

E|------------------------------------------------------------------------------------------------------------- 
B|------------------------------------------------------------------------------------------------------------- 
G|------------------------------------------------------------------------------------------------------------- 
D|------------------------------------------------------------------------------------------------------------- 
A|-12-12-12-12-12-12-12-12-12-12-12-14-14-14-14-14-4-4-4-4-4-4-4-4-5-5-5-5-7-7-7-7----------------------------- 
E|-10-10-10-10-10-10-10-10-10-10-10-12-12-12-12-12-2-2-2-2-2-2-2-2-3-3-3-3-5-5-5-5----------------------------- 

E|------------------------------------------------------------------------------------------------------------- 
B|------------------------------------------------------------------------------------------------------------- 
G|------------------------------------------------------------------------------------------------------------- 
D|------------------------------------------------------------------------------------------------------------- 
A|-12-12-12-12-12-12-12-12-12-12-12-14-14-14-14-14-4-4-4-4-4-4-4-4-5-5-5-5-7-7-7-7----------------------------- 
E|-10-10-10-10-10-10-10-10-10-10-10-12-12-12-12-12-2-2-2-2-2-2-2-2-3-3-3-3-5-5-5-5----------------------------- 




1:43 

1st guitar 

E|-18(18)--------------------------/16(16)----/14(14)-----------------------/16(14)---------------------------- 
B|------------------------------------------------------------------------------------------------------------- 
G|------------------------------------------------------------------------------------------------------------- 
D|------------------------------------------------------------------------------------------------------------- 
A|------------------------------------------------------------------------------------------------------------- 
E|------------------------------------------------------------------------------------------------------------- 

E|-18(18)-----------------------------/16(16)---------/14(14)-/12(12)----/10(10)------------------------------- 
B|------------------------------------------------------------------------------------------------------------- 
G|------------------------------------------------------------------------------------------------------------- 
D|------------------------------------------------------------------------------------------------------------- 
A|------------------------------------------------------------------------------------------------------------- 
E|------------------------------------------------------------------------------------------------------------- 

2nd guitar 

E|------------------------------------------------------------------------------------------------------------- 
B|----------------------12------------------------------------------------------------------------------------- 
G|-11-14-11----13-11-------11-------14----13------------------------------------------------------------------- 
D|--------------------------------------------------11-14-11----13-11----9------11--13------------------------- 
A|------------------------------------------------------------------------------------------------------------- 
E|------------------------------------------------------------------------------------------------------------- 

E|------------------------------------------------------------------------------------------------------------- 
B|----------------------12------------------------------------------------------------------------------------- 
G|-11-14-11----13-11-------11-------14----13------------------------------------------------------------------- 
D|--------------------------------------------------11-14-11----13-11----9------11--13------------------------- 
A|------------------------------------------------------------------------------------------------------------- 
E|------------------------------------------------------------------------------------------------------------- 

3rd guitar 

E|------------------------------------------------------------------------------------------------------------- 
B|------------------------------------------------------------------------------------------------------------- 
G|------------------------------------------------------------------------------------------------------------- 
D|------------------------------------------------------------------------------------------------------------- 
A|-12-12-12-12-12-12-12-12-12-12-12-14-14-14-14-14-4-4-4-4-4-4-4-4-5-5-5-5-7-7-7-7----------------------------- 
E|-10-10-10-10-10-10-10-10-10-10-10-12-12-12-12-12-2-2-2-2-2-2-2-2-3-3-3-3-5-5-5-5----------------------------- 

E|------------------------------------------------------------------------------------------------------------- 
B|------------------------------------------------------------------------------------------------------------- 
G|------------------------------------------------------------------------------------------------------------- 
D|------------------------------------------------------------------------------------------------------------- 
A|-12-12-12-12-12-12-12-12-12-12-12-14-14-14-14-14-4-4-4-4-4-4-4-4-5-5-5-5-7-7-7-7----------------------------- 
E|-10-10-10-10-10-10-10-10-10-10-10-12-12-12-12-12-2-2-2-2-2-2-2-2-3-3-3-3-5-5-5-5----------------------------- 






second verse 



2:03 

1st guitar 

E|----------------------------------14-------14-----------------------------------------14-14-14--------------- 
B|-------------------------14-14-14-------14-----------------------------------14-14-14-----------14-14-------- 
G|-11-11-11-11-11-11-11-11----------------------------11-11-11-11-11-11-11-11---------------------------------- 
D|------------------------------------------------------------------------------------------------------------- 
A|------------------------------------------------------------------------------------------------------------- 
E|------------------------------------------------------------------------------------------------------------- 

E|-----------14----------------14------------------------------------------------------------------------------ 
B|--------14-----14---------------14----14--------------------------------------------------------------------- 
G|-----14-----------14---------------14------------------------------------------------------------------------ 
D|------------------------------------------------------------------------------------------------------------- 
A|------------------------------------------------------------------------------------------------------------- 
E|------------------------------------------------------------------------------------------------------------- 

2nd guitar 

E|------------------------------------------------------------------------------------------------------------- 
B|----------------------12-------------------------------------------------12---------------------------------- 
G|-11-14-11----13-11-------11-------14----13----------11-14-11----13-11-------11-------14----13---------------- 
D|------------------------------------------------------------------------------------------------------------- 
A|------------------------------------------------------------------------------------------------------------- 
E|------------------------------------------------------------------------------------------------------------- 

E|-x----------------------x------------------------------------------------------------------------------------ 
B|-x----------------------0------------------------------------------------------------------------------------ 
G|-6----------------------4------------------------------------------------------------------------------------ 
D|-7----------------------5------------------------------------------------------------------------------------ 
A|-7----------------------5------------------------------------------------------------------------------------ 
E|-5----------------------3------------------------------------------------------------------------------------ 

3rd guitar 

E|------------------------------------------------------------------------------------------------------------- 
B|------------------------------------------------------------------------------------------------------------- 
G|------------------------------------------------------------------------------------------------------------- 
D|-11-11-11-11-11-11-11-0-----------------11-11-11-11-11-11-11-0----------------------------------------------- 
A|-12-12-12-12-12-12-12-0-4-4-4-4-4-4-4-4-12-12-12-12-12-12-12-0-4-4-4-4-4-4-4-4------------------------------- 
E|-10-10-10-10-10-10-10-0-2-2-2-2-2-2-2-2-10-10-10-10-10-10-10-0-2-2-2-2-2-2-2-2------------------------------- 
PM:............................................................................. 

E|------------------------------------------------------------------------------------------------------------- 
B|------------------------------------------------------------------------------------------------------------- 
G|------------------------------------------------------------------------------------------------------------- 
D|------------------------------------------------------------------------------------------------------------- 
A|-5-5-5-5-5-5-5-5-7-7-7-7-7-7-7-7----------------------------------------------------------------------------- 
E|-5-5-5-5-5-5-5-5-7-7-7-7-7-7-7-7----------------------------------------------------------------------------- 
PM:............................... 



~2:18 

1st guitar 

E|----------------------------------14-14----14----------------------------------------14-14----14------------- 
B|-------------------------14-14-14-------14----14----------------------------14-14-14-------14----14---------- 
G|-11-11-11-11-11-11-11-11----------------------------11-11-11-11-11-11-11-11---------------------------------- 
D|------------------------------------------------------------------------------------------------------------- 
A|------------------------------------------------------------------------------------------------------------- 
E|------------------------------------------------------------------------------------------------------------- 

E|----------------14---------------14-------------------------------------------------------------------------- 
B|--------14---------14---------14-----14----14---------------------------------------------------------------- 
G|-----14--------------------14-----------14------------------------------------------------------------------- 
D|------------------------------------------------------------------------------------------------------------- 
A|------------------------------------------------------------------------------------------------------------- 
E|------------------------------------------------------------------------------------------------------------- 

2nd guitar 

E|------------------------------------------------------------------------------------------------------------- 
B|----------------------12-------------------------------------------------12---------------------------------- 
G|-11-14-11----13-11-------11-------14----13----------11-14-11----13-11-------11-------14----13---------------- 
D|------------------------------------------------------------------------------------------------------------- 
A|------------------------------------------------------------------------------------------------------------- 
E|------------------------------------------------------------------------------------------------------------- 

E|-x----------------------x------------------------------------------------------------------------------------ 
B|-x----------------------0------------------------------------------------------------------------------------ 
G|-6----------------------4------------------------------------------------------------------------------------ 
D|-7----------------------5------------------------------------------------------------------------------------ 
A|-7----------------------5------------------------------------------------------------------------------------ 
E|-5----------------------3------------------------------------------------------------------------------------ 

3rd guitar 

E|------------------------------------------------------------------------------------------------------------- 
B|------------------------------------------------------------------------------------------------------------- 
G|------------------------------------------------------------------------------------------------------------- 
D|-11-11-11-11-11-11-11-0-----------------11-11-11-11-11-11-11-0----------------------------------------------- 
A|-12-12-12-12-12-12-12-0-4-4-4-4-4-4-4-4-12-12-12-12-12-12-12-0-4-4-4-4-4-4-4-4------------------------------- 
E|-10-10-10-10-10-10-10-0-2-2-2-2-2-2-2-2-10-10-10-10-10-10-10-0-2-2-2-2-2-2-2-2------------------------------- 
PM:............................................................................. 

E|------------------------------------------------------------------------------------------------------------- 
B|------------------------------------------------------------------------------------------------------------- 
G|------------------------------------------------------------------------------------------------------------- 
D|------------------------------------------------------------------------------------------------------------- 
A|-5-5-5-5-5-5-5-5-7-7-7-7-7-7-7-7----------------------------------------------------------------------------- 
E|-5-5-5-5-5-5-5-5-7-7-7-7-7-7-7-7----------------------------------------------------------------------------- 
PM:............................... 



~2:33 

1st guitar 

E|----------------------------------14--------14---------------------------------------14-14-14---------------- 
B|-------------------------14-14-14-----14-14---------------------------------14-14-14-----------14-14--------- 
G|-11-11-11-11-11-11-11-11----------------------------11-11-11-11-11-11-11-11---------------------------------- 
D|------------------------------------------------------------------------------------------------------------- 
A|------------------------------------------------------------------------------------------------------------- 
E|------------------------------------------------------------------------------------------------------------- 
                                                                        PM:           .... 

E|-----------14-14--------------------14-14-------------------------------------------------------------------- 
B|--------14-------14----14--------14-------14-14-------------------------------------------------------------- 
G|-----14-------------14--------14----------------------------------------------------------------------------- 
D|------------------------------------------------------------------------------------------------------------- 
A|------------------------------------------------------------------------------------------------------------- 
E|------------------------------------------------------------------------------------------------------------- 

2nd guitar 

E|------------------------------------------------------------------------------------------------------------- 
B|----------------------12-------------------------------------------------12---------------------------------- 
G|-11-14-11----13-11-------11-------14----13----------11-14-11----13-11-------11-------14----13---------------- 
D|------------------------------------------------------------------------------------------------------------- 
A|------------------------------------------------------------------------------------------------------------- 
E|------------------------------------------------------------------------------------------------------------- 

E|-x----------------------x------------------------------------------------------------------------------------ 
B|-x----------------------0------------------------------------------------------------------------------------ 
G|-6----------------------4------------------------------------------------------------------------------------ 
D|-7----------------------5------------------------------------------------------------------------------------ 
A|-7----------------------5------------------------------------------------------------------------------------ 
E|-5----------------------3------------------------------------------------------------------------------------ 

3rd guitar 

E|------------------------------------------------------------------------------------------------------------- 
B|------------------------------------------------------------------------------------------------------------- 
G|------------------------------------------------------------------------------------------------------------- 
D|-11-11-11-11-11-11-11-0-----------------11-11-11-11-11-11-11-0----------------------------------------------- 
A|-12-12-12-12-12-12-12-0-4-4-4-4-4-4-4-4-12-12-12-12-12-12-12-0-4-4-4-4-4-4-4-4------------------------------- 
E|-10-10-10-10-10-10-10-0-2-2-2-2-2-2-2-2-10-10-10-10-10-10-10-0-2-2-2-2-2-2-2-2------------------------------- 
PM:............................................................................. 

E|------------------------------------------------------------------------------------------------------------- 
B|------------------------------------------------------------------------------------------------------------- 
G|------------------------------------------------------------------------------------------------------------- 
D|------------------------------------------------------------------------------------------------------------- 
A|-5-5-5-5-5-5-5-5-7-7-7-7-7-7-7-7----------------------------------------------------------------------------- 
E|-5-5-5-5-5-5-5-5-7-7-7-7-7-7-7-7----------------------------------------------------------------------------- 
PM:............................... 






second Chorus 

2:49 

1st guitar 

E|------------------------------------------------------------------------------------------------------------- 
B|-10(10)--------------------------/12(12)----------/7(7)------------------------------------------------------ 
G|------------------------------------------------------------------------------------------------------------- 
D|------------------------------------------------------------------------------------------------------------- 
A|------------------------------------------------------------------------------------------------------------- 
E|------------------------------------------------------------------------------------------------------------- 

E|------------------------------------------------------------------------------------------------------------- 
B|-10(10)--------------------------/12(12)----------/7(7)------------------------------------------------------ 
G|------------------------------------------------------------------------------------------------------------- 
D|------------------------------------------------------------------------------------------------------------- 
A|------------------------------------------------------------------------------------------------------------- 
E|------------------------------------------------------------------------------------------------------------- 

2nd guitar 

E|------------------------------------------------------------------------------------------------------------- 
B|----------------------12------------------------------------------------------------------------------------- 
G|-11-14-11----13-11-------11-------14----13------------------------------------------------------------------- 
D|--------------------------------------------------11-14-11----13-11----9--11--11--13------------------------- 
A|------------------------------------------------------------------------------------------------------------- 
E|------------------------------------------------------------------------------------------------------------- 

E|------------------------------------------------------------------------------------------------------------- 
B|----------------------12------------------------------------------------------------------------------------- 
G|-11-14-11----13-11-------11-------14----13------------------------------------------------------------------- 
D|--------------------------------------------------11-14-11----13-11----9--11--11--13------------------------- 
A|------------------------------------------------------------------------------------------------------------- 
E|------------------------------------------------------------------------------------------------------------- 

3rd guitar 

E|------------------------------------------------------------------------------------------------------------- 
B|------------------------------------------------------------------------------------------------------------- 
G|------------------------------------------------------------------------------------------------------------- 
D|------------------------------------------------------------------------------------------------------------- 
A|-12-12-12-12-12-12-12-12-12-12-12-14-14-14-14-14-4-4-4-4-4-4-4-4-5-5-5-5-7-7-7-7----------------------------- 
E|-10-10-10-10-10-10-10-10-10-10-10-12-12-12-12-12-2-2-2-2-2-2-2-2-3-3-3-3-5-5-5-5----------------------------- 

E|------------------------------------------------------------------------------------------------------------- 
B|------------------------------------------------------------------------------------------------------------- 
G|------------------------------------------------------------------------------------------------------------- 
D|------------------------------------------------------------------------------------------------------------- 
A|-12-12-12-12-12-12-12-12-12-12-12-14-14-14-14-14-4-4-4-4-4-4-4-4-5-5-5-5-7-7-7-7----------------------------- 
E|-10-10-10-10-10-10-10-10-10-10-10-12-12-12-12-12-2-2-2-2-2-2-2-2-3-3-3-3-5-5-5-5----------------------------- 



~3:10 

1st guitar 

E|------------------------------------------------------------------------------------------------------------- 
B|-10(10)--------------------------/12(12)----------/7(7)------------------------------------------------------ 
G|------------------------------------------------------------------------------------------------------------- 
D|------------------------------------------------------------------------------------------------------------- 
A|------------------------------------------------------------------------------------------------------------- 
E|------------------------------------------------------------------------------------------------------------- 

E|------------------------------------------------------------------------------------------------------------- 
B|-10(10)--------------------------/12(12)----------/7(7)------------------------------------------------------ 
G|------------------------------------------------------------------------------------------------------------- 
D|------------------------------------------------------------------------------------------------------------- 
A|------------------------------------------------------------------------------------------------------------- 
E|------------------------------------------------------------------------------------------------------------- 

2nd guitar 

E|------------------------------------------------------------------------------------------------------------- 
B|----------------------12------------------------------------------------------------------------------------- 
G|-11-14-11----13-11-------11-------14----13------------------------------------------------------------------- 
D|--------------------------------------------------11-14-11----13-11----9--11--11--13------------------------- 
A|------------------------------------------------------------------------------------------------------------- 
E|------------------------------------------------------------------------------------------------------------- 

E|------------------------------------------------------------------------------------------------------------- 
B|----------------------12------------------------------------------------------------------------------------- 
G|-11-14-11----13-11-------11-------14----13------------------------------------------------------------------- 
D|--------------------------------------------------11-14-11----13-11----9--11--11--13-13---------------------- 
A|------------------------------------------------------------------------------------------------------------- 
E|------------------------------------------------------------------------------------------------------------- 

3rd guitar 

E|------------------------------------------------------------------------------------------------------------- 
B|------------------------------------------------------------------------------------------------------------- 
G|------------------------------------------------------------------------------------------------------------- 
D|------------------------------------------------------------------------------------------------------------- 
A|-12-12-12-12-12-12-12-12-12-12-12-14-14-14-14-14-4-4-4-4-4-4-4-4-5-5-5-5-7-7-7-7----------------------------- 
E|-10-10-10-10-10-10-10-10-10-10-10-12-12-12-12-12-2-2-2-2-2-2-2-2-3-3-3-3-5-5-5-5----------------------------- 

E|------------------------------------------------------------------------------------------------------------- 
B|------------------------------------------------------------------------------------------------------------- 
G|------------------------------------------------------------------------------------------------------------- 
D|------------------------------------------------------------------------------------------------------------- 
A|-12-12-12-12-12-12-12-12-12-12-12-14-14-14-14-14-4-4-4-4-4-4-4-4-5-5-5-5-7-7-7-7----------------------------- 
E|-10-10-10-10-10-10-10-10-10-10-10-12-12-12-12-12-2-2-2-2-2-2-2-2-3-3-3-3-5-5-5-5----------------------------- 



~3:30 

1st guitar 

E|-18(18)--------------------------/16(16)----/14(14)-----------------------/12(12)--------/10(10)------------- 
B|------------------------------------------------------------------------------------------------------------- 
G|------------------------------------------------------------------------------------------------------------- 
D|------------------------------------------------------------------------------------------------------------- 
A|------------------------------------------------------------------------------------------------------------- 
E|------------------------------------------------------------------------------------------------------------- 

E|-(10)------------------------------------/12(12)-------/10(10)--------------/12(12)-------------------------- 
B|------------------------------------------------------------------------------------------------------------- 
G|------------------------------------------------------------------------------------------------------------- 
D|------------------------------------------------------------------------------------------------------------- 
A|------------------------------------------------------------------------------------------------------------- 
E|------------------------------------------------------------------------------------------------------------- 

2nd guitar 

E|------------------------------------------------------------------------------------------------------------- 
B|----------------------12------------------------------------------------------------------------------------- 
G|-11-14-11----13-11-------11-------14----13------------------------------------------------------------------- 
D|--------------------------------------------------11-14-11----13-11----9--11--11--13------------------------- 
A|------------------------------------------------------------------------------------------------------------- 
E|------------------------------------------------------------------------------------------------------------- 

E|------------------------------------------------------------------------------------------------------------- 
B|----------------------12------------------------------------------------------------------------------------- 
G|-11-14-11----13-11-------11-------14----13------------------------------------------------------------------- 
D|--------------------------------------------------11-14-11----13-11----9--11--11--13-13---------------------- 
A|------------------------------------------------------------------------------------------------------------- 
E|------------------------------------------------------------------------------------------------------------- 

3rd guitar 

E|------------------------------------------------------------------------------------------------------------- 
B|------------------------------------------------------------------------------------------------------------- 
G|------------------------------------------------------------------------------------------------------------- 
D|------------------------------------------------------------------------------------------------------------- 
A|-12-12-12-12-12-12-12-12-12-12-12-14-14-14-14-14-4-4-4-4-4-4-4-4-5-5-5-5-7-7-7-7----------------------------- 
E|-10-10-10-10-10-10-10-10-10-10-10-12-12-12-12-12-2-2-2-2-2-2-2-2-3-3-3-3-5-5-5-5----------------------------- 

E|------------------------------------------------------------------------------------------------------------- 
B|------------------------------------------------------------------------------------------------------------- 
G|------------------------------------------------------------------------------------------------------------- 
D|------------------------------------------------------------------------------------------------------------- 
A|-12-12-12-12-12-12-12-12-12-12-12-14-14-14-14-14-4-4-4-4-4-4-4-4-5-5-5-5-7-7-7-7----------------------------- 
E|-10-10-10-10-10-10-10-10-10-10-10-12-12-12-12-12-2-2-2-2-2-2-2-2-3-3-3-3-5-5-5-5----------------------------- 






interlude 



~3:50 

1st guitar 

E|-------------------------------------14-14-14-14------------------------------------------------------------- 
B|-------------------------14-14-14-14------------------------------------------------------------------------- 
G|-11-11-11-11-11-11-11-11-------------------------11-11-11-11-11-11-11-11-------14-14-14-14-14---------------- 
D|------------------------------------------------------------------------------------------------------------- 
A|------------------------------------------------------------------------------------------------------------- 
E|------------------------------------------------------------------------------------------------------------- 

E|------------------------------------------------------------------------------------------------------------- 
B|-------------------------14-14-14-14-14-14-14-14------------------------------------------------------------- 
G|-11-11-11-11-11-11-11-11-----------------------------14-14-14-14-14-14-14----14-14-14-14-14-14-14------------ 
D|------------------------------------------------------------------------------------------------------------- 
A|------------------------------------------------------------------------------------------------------------- 
E|------------------------------------------------------------------------------------------------------------- 

2nd guitar 

E|------------------------------------------------------------------------------------------------------------- 
B|-------------------------10(10)------------------------------------------------------/7(7)------------------- 
G|------------------------------------------------------------------------------------------------------------- 
D|------------------------------------------------------------------------------------------------------------- 
A|------------------------------------------------------------------------------------------------------------- 
E|------------------------------------------------------------------------------------------------------------- 

E|------------------------------------------------------------------------------------------------------------- 
B|-/10(10)----------------------------------7(7)-------/10(10)----------------/12(12)-------------------------- 
G|------------------------------------------------------------------------------------------------------------- 
D|------------------------------------------------------------------------------------------------------------- 
A|------------------------------------------------------------------------------------------------------------- 
E|------------------------------------------------------------------------------------------------------------- 

3rd guitar 

E|------------------------------------------------------------------------------------------------------------- 
B|------------------------------------------------------------------------------------------------------------- 
G|------------------------------------------------------------------------------------------------------------- 
D|------------------------------------------------------------------------------------------------------------- 
A|-12-12-12-12-12-12-12-12-12-12-12-14-14-14-14-14-4-4-4-4-4-4-4-4-5-5-5-5-7-7-7-7----------------------------- 
E|-10-10-10-10-10-10-10-10-10-10-10-12-12-12-12-12-2-2-2-2-2-2-2-2-3-3-3-3-5-5-5-5----------------------------- 
PM:............................................................................... 

E|------------------------------------------------------------------------------------------------------------- 
B|------------------------------------------------------------------------------------------------------------- 
G|------------------------------------------------------------------------------------------------------------- 
D|------------------------------------------------------------------------------------------------------------- 
A|-12-12-12-12-12-12-12-12-12-12-12-14-14-14-14-14-4-4-4-4-4-4-4-4-5-5-5-5-7-7-7-7----------------------------- 
E|-10-10-10-10-10-10-10-10-10-10-10-12-12-12-12-12-2-2-2-2-2-2-2-2-3-3-3-3-5-5-5-5----------------------------- 
PM:............................................................................... 






outro 



4:11 

1st guitar 

E|------------------------------------------------------------------------------------------------------------- 
B|-10(10)--------------------------/12(12)----------/7(7)------------------------------------------------------ 
G|------------------------------------------------------------------------------------------------------------- 
D|------------------------------------------------------------------------------------------------------------- 
A|------------------------------------------------------------------------------------------------------------- 
E|------------------------------------------------------------------------------------------------------------- 

E|------------------------------------------------------------------------------------------------------------- 
B|-10(10)--------------------------/12(12)----------/7(7)------------------------------------------------------ 
G|------------------------------------------------------------------------------------------------------------- 
D|------------------------------------------------------------------------------------------------------------- 
A|------------------------------------------------------------------------------------------------------------- 
E|------------------------------------------------------------------------------------------------------------- 

2nd guitar 

E|------------------------------------------------------------------------------------------------------------- 
B|----------------------12------------------------------------------------------------------------------------- 
G|-11-14-11----13-11-------11-------14----13------------------------------------------------------------------- 
D|--------------------------------------------------11-14-11----13-11----9--11--11--13------------------------- 
A|------------------------------------------------------------------------------------------------------------- 
E|------------------------------------------------------------------------------------------------------------- 

E|------------------------------------------------------------------------------------------------------------- 
B|----------------------12------------------------------------------------------------------------------------- 
G|-11-14-11----13-11-------11-------14----13------------------------------------------------------------------- 
D|--------------------------------------------------11-14-11----13-11----9--11--11--13-13---------------------- 
A|------------------------------------------------------------------------------------------------------------- 
E|------------------------------------------------------------------------------------------------------------- 

3rd guitar 

E|------------------------------------------------------------------------------------------------------------- 
B|------------------------------------------------------------------------------------------------------------- 
G|------------------------------------------------------------------------------------------------------------- 
D|------------------------------------------------------------------------------------------------------------- 
A|-12-12-12-12-12-12-12-12-12-12-12-14-14-14-14-14-4-4-4-4-4-4-4-4-5-5-5-5-7-7-7-7----------------------------- 
E|-10-10-10-10-10-10-10-10-10-10-10-12-12-12-12-12-2-2-2-2-2-2-2-2-3-3-3-3-5-5-5-5----------------------------- 

E|------------------------------------------------------------------------------------------------------------- 
B|------------------------------------------------------------------------------------------------------------- 
G|------------------------------------------------------------------------------------------------------------- 
D|------------------------------------------------------------------------------------------------------------- 
A|-12-12-12-12-12-12-12-12-12-12-12-14-14-14-14-14-4-4-4-4-4-4-4-4-5-5-5-5-7-7-7-7----------------------------- 
E|-10-10-10-10-10-10-10-10-10-10-10-12-12-12-12-12-2-2-2-2-2-2-2-2-3-3-3-3-5-5-5-5----------------------------- 



~4:31 

1st guitar 

E|-18(18)--------------------------/16(16)----/14(14)-----------------------/16(14)---------------------------- 
B|------------------------------------------------------------------------------------------------------------- 
G|------------------------------------------------------------------------------------------------------------- 
D|------------------------------------------------------------------------------------------------------------- 
A|------------------------------------------------------------------------------------------------------------- 
E|------------------------------------------------------------------------------------------------------------- 

E|-/18(18)-----------------... 
B|-------------------------... 
G|-------------------------... 
D|-------------------------... 
A|-------------------------... 
E|-------------------------... 

2nd guitar 

E|------------------------------------------------------------------------------------------------------------- 
B|----------------------12------------------------------------------------------------------------------------- 
G|-11-14-11----13-11-------11-------14----13------------------------------------------------------------------- 
D|--------------------------------------------------11-14-11----13-11----9--11--11--13------------------------- 
A|------------------------------------------------------------------------------------------------------------- 
E|------------------------------------------------------------------------------------------------------------- 

E|-------------------------... 
B|----------------------12-... 
G|-11-14-11----13-11-------... 
D|-------------------------... 
A|-------------------------... 
E|-------------------------... 

3rd guitar 

E|------------------------------------------------------------------------------------------------------------- 
B|------------------------------------------------------------------------------------------------------------- 
G|------------------------------------------------------------------------------------------------------------- 
D|------------------------------------------------------------------------------------------------------------- 
A|-12-12-12-12-12-12-12-12-12-12-12-14-14-14-14-14-4-4-4-4-4-4-4-4-5-5-5-5-7-7-7-7----------------------------- 
E|-10-10-10-10-10-10-10-10-10-10-10-12-12-12-12-12-2-2-2-2-2-2-2-2-3-3-3-3-5-5-5-5----------------------------- 

E|-------------------------... 
B|-------------------------... 
G|-------------------------... 
D|-------------------------... 
A|-12-12-12-12-12-12-12-12-... 
E|-10-10-10-10-10-10-10-10-... 

... 

Compartilhe esta música: novo

QR Code
Copiar