Slowdive

Slowdive

Tom: C
Intro and Verse: 
     A (let ring)                      C (let ring)      D (let ring) 
e|---0---------------------------------0-----------------2----------------------| 
B|---2--------------------------2b--2--1-----------------3----------------------| 
G|---2--------------------------2b--2--0-----------------2----------------------| 
D|---2--2--2--2--2--2--2--2--2--2b--2--2-----------------0----------------------| 
A|---0--0--0--0--0--0--0--0--0---------3----------------------------------------| 
E|------------------------------------------------------------------------------| 

Pre-Chorus (1:09) 

     C (Strum)        D (Strum)  
e|---0----------------2------------| 
B|---1----------------3------------| 
G|---0----------------2------------| 
D|---2----------------0------------|     x2 
A|---3-----------------------------| 
E|---------------------------------| 

Chorus (1:25) 

            Em (Strum)             D (Strum) 
e|----------0----------------------2----------| 
B|----------0----------------------3----------| 
G|----------0----------------------2----------| 
D|----------2----------------------0----------|    x2 
A|----------2---------------------------------| 
E|----------0---------------------------------| 
 'Slowdiveeee....        You can't touch me now    

Bridge  

     C (Let Ring)     D (Let Ring)  
e|---0----------------2------------| 
B|---1----------------3------------| 
G|---0----------------2------------| 
D|---2----------------0------------|     x2 
A|---3-----------------------------| 
E|---------------------------------|  


************************************ 

| /   slide up 
| \   slide down 
| h   hammer-on 
| p   pull-off 
| ~   vibrato 
| +   harmonic 
| x   Mute note 
| b   Bend 
| pb  Pre-bend 
| br  Bend release 
| pbr Pre-bend release 
| brb Bend release bend 

************************************ 

Compartilhe esta música: novo

QR Code
Copiar