At It Again

Slow Pulp

Tom: E
Tuning: standard 
Tempo: 140 bpm  
Time signature: 4/4 


Intro 

    q     e  e  q     e  e       q     e  e  e  e  e 
G|----------------------------|----------------------------| 
D|----------------------------|----------------------------| 
A|----------------------------|----------------------------| 
E|--5-----5--5--5-----5--5----|--5-----5--5--5--5--4-------| 

    q     e  e  q     e  e       q     e  e  e  e  e 
G|----------------------------|----------------------------| 
D|----------------------------|----------------------------| 
A|----------------------------|----------------------------| 
E|--5-----5--5--5-----5--5----|--5-----5--5--5--5--7-------| 


Verse 

    q     e  q     e  e          q     e  q     e  e 
G|----------------------------|----------------------------| 
D|----------------------------|----------------------------| 
A|--------------------7-------|----------------------------| 
E|--9-----9--9-----9----------|--7-----7--7-----7h-9-------| 

    q     e  e  e  e  e  e       e  e  e  e  e  e  e 
G|----------------------------|----------------------------| 
D|----------------------------|----------------------------| 
A|----------------------------|----------------------------| 
E|--5-----5--5--5--5--5--5----|--5--5--5--5--5--5/-7-------| 

    q     e  e  e  e  e          q     e  e  e  e  e 
G|----------------------------|----------------------------| 
D|----------------------------|----------------------------| 
A|--------------------7-------|----------------------------| 
E|--9-----9--9--9--9----------|--7-----7--7--7--7h-9-------| 

    q     e  e  q     e  e       q     e  e  e  e  e 
G|----------------------------|----------------------------| 
D|----------------------------|----------------------------| 
A|----------------------------|----------------------------| 
E|--5-----5--5--5-----5--5----|--5-----5--5--5--5/-7-------| 

    q     e  e  e  e  e  e       q     e  e  e  e  e 
G|----------------------------|----------------------------| 
D|----------------------------|----------------------------| 
A|-----------------11-7-------|--------------------7-------| 
E|--9-----9--9--9--------9\---|--7-----7--7--7--7----------| 

    q     e  e  q     e  e       q     e  e  e  e  e  e 
G|----------------------------|----------------------------| 
D|----------------------------|----------------------------| 
A|----------------------------|----------------------------| 
E|--5-----5--5--5-----5--5----|--14----14-14-14-14-14-14---| 


Chorus 

    q     e  q     e  e  e       q     e  q     e  e  e 
G|----------------------------|----------------------------| 
D|----------------------------|----------------------------| 
A|----------------------------|----------------------------| 
E|--0-----0--0-----0--0--0----|--7-----7--7-----7--7--7----| 

    q     e  e  q     e  e       q     e  e  e  e  e 
G|----------------------------|----------------------------| 
D|----------------------------|----------------------------| 
A|----------------------------|----------------------------| 
E|--5-----5--5--5-----5--5----|--5-----5--5--5--5\-4-------| 

    q     e  q     e  e  e       q     e  q     e  e  e 
G|----------------------------|----------------------------| 
D|----------------------------|----------------------------| 
A|----------------------------|----------------------------| 
E|--0-----0--0-----0--0--0----|--7-----7--7-----7--7--7----| 

    q     e  e  q     e  e       q     e  e  e  e  e 
G|----------------------------|----------------------------| 
D|----------------------------|----------------------------| 
A|----------------------------|----------------------------| 
E|--5-----5--5--5-----5--5----|--5-----5--5--5--5/-7-------| 


Verse 

    q.       q     e  e          q     e  q     e  e 
G|----------------------------|----------------------------| 
D|----------------------------|----------------------------| 
A|--------------------7-------|----------------------------| 
E|--9--------9-----9----------|--7-----7--7-----7h-9-------| 

    q     e  e  e  e  e  e       e  e  e  e  e  e  e 
G|----------------------------|----------------------------| 
D|----------------------------|----------------------------| 
A|----------------------------|----------------------------| 
E|--5-----5--5--5--5--5--5----|--5--5--5--5--5--5/-7-------| 

    q     e  q     e  e          q     e  q     e  e 
G|----------------------------|----------------------------| 
D|----------------------------|----------------------------| 
A|--------------------7-------|----------------------------| 
E|--9-----9--9-----9----------|--7-----7--7-----7h-9-------| 

    q     e  e  e  e  e  e       e  e  e  e  e  e  e 
G|----------------------------|----------------------------| 
D|----------------------------|----------------------------| 
A|----------------------------|----------------------------| 
E|--5-----5--5--5--5--5--5----|--5--5--5--5--5--5/-7-------| 

    q.       q     e  e          q     e  e  e  e  e 
G|----------------------------|----------------------------| 
D|----------------------------|----------------------------| 
A|--------------------7-------|--------------------7-------| 
E|--9--------9-----9----------|--7-----7--7--7--7----------| 

    q     e  e  e  e  e  e       q     e  e  e  e  e  e 
G|----------------------------|----------------------------| 
D|----------------------------|----------------------------| 
A|----------------------------|----------------------------| 
E|--5-----5--5--5--5--5--5----|--14----14-14-14-14-14-14---| 


Chorus 

    q     e  q     e  e  e       q     e  q     e  e  e 
G|----------------------------|----------------------------| 
D|----------------------------|----------------------------| 
A|----------------------------|----------------------------| 
E|--0-----0--0-----0--0--0----|--7-----7--7-----7--7--7----| 

    q     e  e  q     e  e       q     e  e  e  e  e 
G|----------------------------|----------------------------| 
D|----------------------------|----------------------------| 
A|----------------------------|----------------------------| 
E|--5-----5--5--5-----5--5----|--5-----5--5--5--5\-4-------| 

    q     e  q     e  e  e       q     e  q     e  e  e 
G|----------------------------|----------------------------| 
D|----------------------------|----------------------------| 
A|----------------------------|----------------------------| 
E|--0-----0--0-----0--0--0----|--7-----7--7-----7--7--7----| 

    q     e  e  q     e  e       q     e  e  e  e  e 
G|----------------------------|----------------------------| 
D|----------------------------|----------------------------| 
A|----------------------------|----------------------------| 
E|--5-----5--5--5-----5--5----|--5-----5--5--5--5/-7-------| 


Solo 

    w       w       w       H.                e 
G|-------|-------|-------|----------------------------| 
D|-------|-------|-------|----------------------------| 
A|-------|-------|-------|----------------------------| 
E|--9----|--7----|--5T---|--5-----------------7-------| x2 

    w       w       H.                e          H.                e 
G|-------|-------|----------------------------|----------------------------| 
D|-------|-------|----------------------------|----------------------------| 
A|-------|-------|----------------------------|----------------------------| 
E|--9----|--12---|--5-----------------5-------|--2-----------------2-------| 


Outro 

    H.                e          H.                e 
G|----------------------------|----------------------------| 
D|----------------------------|----------------------------| 
A|----------------------------|----------------------------| 
E|--0-----------------0-------|--7-----------------7-------| 

   H.                e           H.                e 
G|----------------------------|----------------------------| 
D|----------------------------|----------------------------| 
A|----------------------------|----------------------------| 
E|--5-----------------5-------|--5-----------------4-------| x2 previous four measures 

   H.                e           H.                e          w       w 
G|----------------------------|----------------------------|-------|-------|| 
D|----------------------------|----------------------------|-------|-------|| 
A|----------------------------|----------------------------|-------|-------|| 
E|--0-----------------0-------|--7-----------------7-------|--5T---|--5----|| 


*********************************** 

| T   Tied note 
| h   Hammer-on 
| /   Slide up 
| \   Slide down 
| w   Whole note (semibreve) 
| H   Half note (minim) 
| q   Quarter note (crotchet) 
| e   Eighth note (quaver) 
| .   Dotted note 

*********************************** 

Compartilhe esta música: novo

QR Code
Copiar