Vou Deixa (Solo 2)

Skank

Solo de Intro.: (Faça bem rápido) 
eI--0-0--0-0--0-0--0-0-0-0I  
BI--5-5--3-3--2-2--3-3-5-5I  
GI------------------------I     2x 
DI------------------------I  
AI------------------------I  
EI------------------------I  
  
  
E você se puder não esqueça...  
e|--------------------|-------------|  
B|-------5----7vibrato|-5---------7-|  
G|----7----7----------|---7-3-5-2---|  
  
e|-------------|-------|-------------|  
B|-5-5-5-7-5---|---3-0-|-0-2-0---2-0-|  
G|-----------7-|-2-----|-------2-----|  
D|-------------|-------|-------------|  
A|-------------|-------|-------------|  
E|-------------|-------|-------------|  
  
____________________________________________  
Solo adicionado Por:  
Victor Teixeira da Silva Aragão  
  
¡VictorGuitar!  
  
victor.aragao.vilabol.uol.com.br/home.html  

Compartilhe esta música: novo

QR Code
Copiar