Super nova

Skank

        Riff 1 
 
e|------------------------- 
b|------------------------- 
g|------------------------- 
d|----6-7-6---4-4---------- 
a|-7---------7------------- 
E|------------------------- 
 
e|------------------------- 
b|------------------------- 
g|----------4-3------------ 
d|-2-2-2-4------4-2-2-2-4-- 
a|------------------------- 
E|------------------------- 

Compartilhe esta música: novo

QR Code
Copiar