Six Feet Deep

Six Ft Ditch

This is my first tab ever 
Hope you enjoy! 

Intro / Verse 

D|----------------|-----------------| 
A|----------------|-----------------| 
F|----------------|-----------------| 
C|----------------|-----------------| 
G|-----0----------|-1/0-----1---4-3-| 
C|-0-0-0-0-0-0-0-0|-1/0-0-0-1-0-4-3-| 
pm . .   . . . . .      . .   . 


Chorus 

D|----------------|--------------| 
A|----------------|--------------| 
F|----------------|--------------| 
C|----------------|--------------| 
G|-3--1--------1-3|1--0----------| 
C|-3--1---0-0--1-3|1--0--0-0-0-0-| 
pm        . .            . . . .  


Breakdown 

D|----------------|-----------------| 
A|----------------|-----------------| 
F|----------------|-----------------| 
C|----------------|-----------------| 
G|-----0----------|-1/0-----1--4-3--| 
C|-0-0-0-------0-0|-1/0---0-1--4-3--| 
pm . .         . .        . 

Compartilhe esta música: novo

QR Code
Copiar