Rotten Apple

Screaming Females

Intro 

e--------------------------| 
b--------------------------| 
g---11-12-11-14-16-14-14---| 
d---12-12-12-12-14-12-12---| 
a--------------------------| 
e--------------------------| 

Verse 
'Please don't let the mystery end / so I won't be forgotten...' 
e---------------------------------------------------------------------| 
b---------------------------------------------------------------------| 
g---11-12-11-14-16-14-14--11-12-11-14-16-14-14--11-12-11-14-16-14-14--| 
d---12-12-12-12-14-12-12--12-12-12-12-14-12-12--12-12-12-12-14-12-12--| 
a---------------------------------------------------------------------| 
e---------------------------------------------------------------------| 

e------------------| 
b------------------| 
g---11---9----9--7-| 
d-12--12---11------| 
a------------------| 
e------------------| 

PreChorus 
'I'll be sitting on the base / effects are furious...' 

e---------------------------------------------------------------------| 
b---------------------------------------------------------------------| 
g---11-12-11-14-16-14-14--11-12-11-14-16-14-14--11-12-11-14-16-14-14--| 
d---12-12-12-12-14-12-12--12-12-12-12-14-12-12--12-12-12-12-14-12-12--| 
a---------------------------------------------------------------------| 
e---------------------------------------------------------------------| 

e------------------| 
b------------------| 
g---11---9----9--7-| 
d-12--12---11------| 
a------------------| 
e------------------| 

Chorus 
'I'm a rotten apple...' 
e------------------------------------------------------------------| 
b------------------------------------------------------------------| 
g-13\14/13/16-16--11-11-11/-13-13-13--13\14/13/16~~~13\14/13/16-16-| 
d------------------------------------------------------------------| 
a-11\12/11/14-14---9-9-9/--11-11-11---11\12/11------11\12/11/14-14-| 
e------------------------------------------------------------------| 

e--------------------------------------| 
b--------------------------------------| 
g-11-11-11/-13-13-13--13br11\9/11-9~~--| 
d--------------------------------------| 
a--9-9-9-/--11-11-11-------------------| 
e--------------------------------------| x2 

Verse x 1 
'You're drawing signals in the snow / with breath that spins my name...' 
PreChorus x1 
'I'll be sitting on the base / swallowing pounds of sand...' 
Chorus x2 
'I'm a rotten apple...' 

Bridge 
e---------------------------------------------------------| 
b----------------------------------------------8-8-8-8-10-| 
g---11-11-11-11-11--9--9--9--9--9---7-7-7-7-7--7-7-7-7-7--| 
d---12-12-12-12-12--11-11-11-11-11--9-9-9-9-9--9-9-9-9-9--| 
a---------------------------------------------------------| 
e---------------------------------------------------------| 

e--------------------------------------------------------------| 
b--------------------------------------------------------------| 
g---11-11-11-11-11--9--9--9--9--9---7-7-7-7-7--8/10/12/14/15~~-| 
d---12-12-12-12-12--11-11-11-11-11--9-9-9-9-9------------------| 
a--------------------------------------------------------------| 
e--------------------------------------------------------------| 

The first solo in the bridge with the delay effect on it is improvised. It's followed up  
by this composed 'solo' bit: 

e-------------------------------------------------------------------------| 
b-------------------------------------------------------------------------| 
g-----11--14-12-11---9---12-11-9---7---9/11--12-11-----11--14-12-11---9---| 
d---12--12---------11-11---------9---9------7-----14-12--12---------11-11-| 
a-------------------------------------------------------------------------| 
e-------------------------------------------------------------------------| 

e----------------------------3~~---| 
b----------------------------3~~---| 
g12-11-9---11---9---9-7~~~---4~~---| 
d--------12--12---11---------5~~---| 
a----------------------------5~~---| 
e----------------------------3~~---| 

Chorus x2 
'I'm a rotten apple...' 
Verse x1 
'Please don't let the mystery end / so I won't be forgotten...' 

Compartilhe esta música: novo

QR Code
Copiar