Laura And Marty

Screaming Females

Tom: D
Intro 

e|-------------------------|-------------------------| 
B|-------------------------|-------------------------| 
G|-------------------------|-------------------------| 
D|--2-------------------5--|--7--5--2----------------| 
A|--2-------------------5--|--7--5--2----------------| 
D|--2-------------------5--|--7--5--2----------------| 



Verse 
                                            'When I want to feed...' 
e|--------------------------|----------------------------------------| 
B|--------------------------|----------------------------------------| 
G|--------------12--12--12--|----------------------------------------| 
D|--14--14--14--------------|-11/12--12--16--16--16--16--16--16--16--| x3 
A|--------------------------|----------------------------------------| 
D|--------------------------|----------------------------------------| 

e|--------------------------|----------------------------------------| 
B|--------------------------|----------------------------------------| 
G|--------------12--12--12--|--14b16b14--12------12--14--b16b14--12--| 
D|--14--14--14--------------|----------------14----------------------|  
A|--------------------------|----------------------------------------| 
D|--------------------------|----------------------------------------| 

'I'm not talking...' 
e|--------------------------| 
B|--------------------------| 
G|------12~--------16~------| 
D|--14------11/12-----------| x3 
A|--------------------------| 
D|--------------------------| 

'I’ll use my know-how' 
e|--------------------------| 
B|--------------------------| 
G|------12~--14b16~---------| 
D|--14----------------------| 
A|--------------------------| 
D|--------------------------| 



Riff 

e|-------------------------|-------------------------| 
B|-------------------------|-------------------------| 
G|--13---13--13/15--13-----|--7--7--7/9--9-----------| 
D|---x---x---x--x---x------|--7--7--7/9--9-----------| 
A|--11---11--11/13--11-----|--5--5--5/7--7-----------| 
D|-------------------------|-------------------------| 

e|-------------------------|-------------------------| 
B|-------------------------|-------------------------| 
G|--13---13--13/15--13-----|------5--7--5------------| 
D|---x---x---x--x---x------|------5--7--5------------| 
A|--11---11--11/13--11-----|------5--7--5------------| 
D|-------------------------|-------------------------| 

e|-------------------------|-------------------------| 
B|-------------------------|-------------------------| 
G|--13---13--13/15--13-----|--7--7--7/9--9-----------| 
D|---x---x---x--x---x------|--7--7--7/9--9-----------| 
A|--11---11--11/13--11-----|--5--5--5/7--7-----------| 
D|-------------------------|-------------------------| 

e|--------------------------| 
B|--------------------------| 
G|--13---13--13/15--13--16--| 
D|---x---x---x--x---x----x--| 
A|--11---11--11/13--11--14--| 
D|--------------------------| 




Verse 
                                            'Got a list of lips...' 
e|--------------------------|----------------------------------------| 
B|--------------------------|----------------------------------------| 
G|--------------12--12--12--|----------------------------------------| 
D|--14--14--14--------------|-11/12--12--16--16--16--16--16--16--16--| x3 
A|--------------------------|----------------------------------------| 
D|--------------------------|----------------------------------------| 

e|--------------------------|----------------------------------------| 
B|--------------------------|----------------------------------------| 
G|--------------12--12--12--|--14b16b14--12------12--14--b16b14--12--| 
D|--14--14--14--------------|----------------14----------------------|  
A|--------------------------|----------------------------------------| 
D|--------------------------|----------------------------------------| 

'Instead, install...' 
e|--------------------------| 
B|--------------------------| 
G|------12~--------16~------| 
D|--14------11/12-----------| x3 
A|--------------------------| 
D|--------------------------| 

'I’ll use my know-how' 
e|--------------------------| 
B|--------------------------| 
G|------12~--14b16~---------| 
D|--14----------------------| 
A|--------------------------| 
D|--------------------------| 




Riff 

e|-------------------------|-------------------------| 
B|-------------------------|-------------------------| 
G|--13---13--13/15--13-----|--7--7--7/9--9-----------| 
D|---x---x---x--x---x------|--7--7--7/9--9-----------| 
A|--11---11--11/13--11-----|--5--5--5/7--7-----------| 
D|-------------------------|-------------------------| 

e|-------------------------|-------------------------| 
B|-------------------------|-------------------------| 
G|--13---13--13/15--13-----|------5--7--5------------| 
D|---x---x---x--x---x------|------5--7--5------------| 
A|--11---11--11/13--11-----|------5--7--5------------| 
D|-------------------------|-------------------------| 

e|-------------------------|-------------------------| 
B|-------------------------|-------------------------| 
G|--13---13--13/15--13-----|--7--7--7/9--9-----------| 
D|---x---x---x--x---x------|--7--7--7/9--9-----------| 
A|--11---11--11/13--11-----|--5--5--5/7--7-----------| 
D|-------------------------|-------------------------| 

e|--------------------------| 
B|--------------------------| 
G|--13---13--13/15--13--16--| 
D|---x---x---x--x---x----x--| 
A|--11---11--11/13--11--14--| 
D|--------------------------| 



Bridge - Listen to the track for strumming pattern 

'Laura and Marty went to a party...' 
e|-------------------------|----------10--9----------| 
B|--9--9--9----10-10-10----|-----------x--x----------| 
G|--9--9--9-----9--9--9----|--9--9-----9--9----------| 
D|--9--9--9-----9--9--9----|--7--7-----7--7----------| x8 (last 4 with more distortion) 
A|--7--7--7-----7--7--7----|--0--0-----0--0----------| 
D|-------------------------|-------------------------| 



Intro 

e|-------------------------|-------------------------| 
B|-------------------------|-------------------------| 
G|-------------------------|-------------------------| 
D|--2-------------------5--|--7--5-------------------| x4 
A|--2-------------------5--|--7--5-------------------| 
D|--2-------------------5--|--7--5-------------------| 



Solo 

e|-------------------------|-------------------------| 
B|-------------------------|-------------------------| 
G|-------------------------|-------------------------| 
D|-------------------------|-------------------------| 
A|-------------------------|-------------------------| 
D|-------------------------|-------------------------| 

e|-------------------------|-------------------------| 
B|-------------------------|-------------------------| 
G|-------------------------|-------------------------| 
D|-------------------------|-------------------------| 
A|-------------------------|-------------------------| 
D|-------------------------|-------------------------| 



Verse 
                                            'So you’ve lost your touch...' 
e|--------------------------|----------------------------------------| 
B|--------------------------|----------------------------------------| 
G|--------------12--12--12--|----------------------------------------| 
D|--14--14--14--------------|-11/12--12--16--16--16--16--16--16--16--| x3 
A|--------------------------|----------------------------------------| 
D|--------------------------|----------------------------------------| 

e|--------------------------|----------------------------------------| 
B|--------------------------|----------------------------------------| 
G|--------------12--12--12--|--14b16b14--12------12--14--b16b14--12--| 
D|--14--14--14--------------|----------------14----------------------|  
A|--------------------------|----------------------------------------| 
D|--------------------------|----------------------------------------| 

  'Crowd turned panic...' 
e|--------------------------| 
B|--------------------------| 
G|------12~--------16~------| 
D|--14------11/12-----------| x3 
A|--------------------------| 
D|--------------------------| 

e|--------------------------| 
B|--------------------------| 
G|------12~--14b16~---------| 
D|--14----------------------| 
A|--------------------------| 
D|--------------------------| 



Riff x2 

e|-------------------------|-------------------------| 
B|-------------------------|-------------------------| 
G|--13---13--13/15--13-----|--7--7--7/9--9-----------| 
D|---x---x---x--x---x------|--7--7--7/9--9-----------| 
A|--11---11--11/13--11-----|--5--5--5/7--7-----------| 
D|-------------------------|-------------------------| 

e|-------------------------|-------------------------| 
B|-------------------------|-------------------------| 
G|--13---13--13/15--13-----|------5--7--5------------| 
D|---x---x---x--x---x------|------5--7--5------------| 
A|--11---11--11/13--11-----|------5--7--5------------| 
D|-------------------------|-------------------------| 

e|-------------------------|-------------------------| 
B|-------------------------|-------------------------| 
G|--13---13--13/15--13-----|--7--7--7/9--9-----------| 
D|---x---x---x--x---x------|--7--7--7/9--9-----------| 
A|--11---11--11/13--11-----|--5--5--5/7--7-----------| 
D|-------------------------|-------------------------| 

e|--------------------------| 
B|--------------------------| 
G|--13---13--13/15--13--16--| 
D|---x---x---x--x---x----x--| 
A|--11---11--11/13--11--14--| 
D|--------------------------| 



Outro 

e|--------------------------| 
B|--------------------------| 
G|--------------------------| 
D|--2-----------------------| 
A|--2-----------------------| 
D|--2-----------------------| 

Compartilhe esta música: novo

QR Code
Copiar